Oops, an error
Loading. Please wait.

Down The Slopes Of Death Bass Tab

version 1
version 1

Whole song

Interactive

1,559 views 1 this week
2 commentsread comments
1 2 3 4 5
1 last vote to show rating
add to favorites
launch autoscroll
font size
0
reset
guitar tuner
Autoscroll
slow
fast
+/-
esc
set tempo
stop
Help us to improve Ultimate-Guitar.com Take our survey!
×
Difficulty
intermediate
Amon Amarth - Down The Slopes of Death    tuning B E A D

Riff 1 2x
|------------|---|
|------------|---|
|-7--5--5-7-8|-7-|
|------------|---|

Riff 2 2x
|------------------------|------------------------|------------------------|
|555555555555555555555555|444444444444444444444444|555555555555555555555555|
|------------------------|------------------------|------------------------|
|------------------------|------------------------|------------------------|

Riff 2 cont.
|------------------------|------------------------|------------------------------|
|555555555555555555777777|999999999999999999999999|777777777777777777101010101010|
|------------------------|------------------------|------------------------------|
|------------------------|------------------------|------------------------------|

Riff 2 cont.
|------------------------|------------------------|
|999999999999999999999999|999999999999999999999999|
|------------------------|------------------------|
|------------------------|------------------------|

Riff 3 4x
|----------------------|----------------------|
|----------------------|----------------------|
|-7-----------5-----7-8|7---------------------|
|---0-0-0-0-0---0-0----|--0-0-0-0-0-0-0-0-0-0-|

Chorus Riff 4x
|-----------------------|-----------------------|
|-----------------------|-----------------------|
|8-8-8-8-8-8-8-8-8-8-8-8|8-8-8-8-8-8-8-8-8-8-8-8|
|-----------------------|-----------------------|

Chorus Riff cont.
|-----------------------|------------------------|
|-----------------------|------------------7-9-10|
|0-0-0-0-0-0-0-0-0-0-0-0|0-0-0-0-0-0-0-0-0-------|
|-----------------------|------------------------

Riff 3 4x

Pre Chorus Riff 4x
|-----------------------|-----------------------|
|-----------------------|-----------------------|
|-----------------------|-----------------------|
|8-8-8-8-8-8-8-8-8-8-8-8|8-8-8-8-8-8-8-8-8-8-8-8|

Pre Chorus cont.
|-----------------------|-----------------------|
|-----------------------|-----------------------|
|-----------------------|-----------------------|
|0-0-0-0-0-0-0-0-0-0-0-0|0-0-0-0-0-0-0-0-0-0-0-0|

Chorus Riff 3 1/2x

Riff 2x

Break Riff 2x             2x                    2x
|---------------------------|---------------------|
|---------------------------|---------------------|
|7--7-10-9-10-7--7-10-9-10-7|3--3-7-5-7-3--3-7-5-7|
----------------------------|---------------------|





Riff 4 4x
|-----------------|-----------------|----------------------|-----------2-4-2------|
|-----------------|-----------------|-----5-4-5------5-4-5-|-----5-4-5-------5-4-5|
|-----------------|-----------------|3--3-------3---3------|3--3------------------|
|0--0-0-0-0--0-0-0|0--0-0-0-3--3-3-3|----------------------|----------------------|

Riff 2 2x

Riff 3 8x
Suggest correction
Give kudos to tab author, rate the tab!
1 2 3 4 5
comments
print report bad tab
2 comments total.
0 reply
fur_face 10 Jun 20, 2009 07:07 AM

sweet dude!

0 reply
Zaphyrom 30 Jul 02, 2009 02:38 PM

you dont change the tuning down to B E A D you just need a 5 string bass

guest
You may want to rate the tab now too:
select rating
Wanna post a correction for this tab? Suggest correction