Oops, an error
Loading. Please wait.

Embrace Of The Endless Ocean Tab

version 2
version 2

Whole song

3,400 views 9 this week
3 commentsread comments
1 2 3 4 5
excellent!
x 3
add to favorites
launch autoscroll
font size
0
reset
how to read this tab
guitar tuner
Tab Pro tools
  • play this tab
  • loop segment
  • change instrument
  • show fretboard
  • metronome
×
Best way to learn
"Embrace Of The Endless Ocean"
Autoscroll
slow
fast
+/-
esc
set tempo
stop
Contributor
Amon Amarth
Embrace of the Endless Ocean
Twilight Of The Thunder God (2008)

This is the lead guitar only, I haven't really managed to find out about the rythmn guitar.

I didn't find a tab for this song that is 100% correct, so I thought I'd submit one that 
is. Please note that this is in Standard tuning, even if Amon Amarth doesn't do Standard.

I like to use the Wah pedal on the intro, chorus and solo part. I think it sounds cooler 
that way, and I think Amon Amarth uses the Wah pedal as well.



Intro, with Wah (x2):
e|-------------------------------------------------------|
B|-------------------------------------------------------|
G|-------------------------------------------------------|
D|-9-4-9-4-9-4-9-4-9-4-9-4-11-4-11-4-11-4-12-4-12-4-12-4-|
A|-------------------------------------------------------|
E|-------------------------------------------------------|

e|-----------------------------------------------------|
B|-----------------------------------------------------|
G|-----------------------------------------------------|
D|9-5-9-5-9-5-9-5-9-5-9-5------------------------------|
A|------------------------10-7-10-7-10-7-10-7-10-7-10-7|
E|-----------------------------------------------------|

e|-------------------------------------------------------------|
B|-------------------------------------------------------------|
G|-------------------------------------------------------------|
D|-7-14-7-14-7-14-7-14-7-14-7-14-7-16-7-16-7-16-7-17-7-17-7-17-|
A|-------------------------------------------------------------|
E|-------------------------------------------------------------|

e|-------------------------------------------------|
B|-------------------------------------------------|
G|-------------------------------------------------|
D|-------------------------------------------------|
A|-5-9-5-9-5-9-5-9-5-9-5-9-4-9-4-9-4-9-4-9-4-9-4-9-|
E|-------------------------------------------------|





Verse 1 (x2)
I stroke the blade with my hand...
e|--------------------------------------------------|
B|--------------------------------------------------|
G|--------------------------------------------------|
D|--------------------------------------------------|
A|--2-2-2-2-2-2-2-2-2-0-0-0-2-2-2-2-2-2-2-2-2-5-5-5-|
E|-2-2-2-2-2-2-2-2-2-2-2-2-3-3-3-3-3-3-3-3-3-3-5-5-5|
   * * * * * * * * * * * * * * * * * * * * * * * * *

Blood Drips to the rain-wet sand...
e|--------------------------------------------------|
B|--------------------------------------------------|
G|--------------------------------------------------|
D|--------------------------------------------------|
A|7-7-7-7-7-7-7-7-7-7-4-4-4-5-5-5-5-5-5-5-5-5-4-4-4-|
E|-5-5-5-5-5-5-5-5-5-5-5-5-5-5-5-5-5-5-5-5-5-5-5-5-5|
   * * * * * * * * * * * * * * * * * * * * * * * * *





Play the intro again, with Wah (x2):
1. Once a slave...
2. Once again...
e|-------------------------------------------------------|
B|-------------------------------------------------------|
G|-------------------------------------------------------|
D|-9-4-9-4-9-4-9-4-9-4-9-4-11-4-11-4-11-4-12-4-12-4-12-4-|
A|-------------------------------------------------------|
E|-------------------------------------------------------|

1. But now I'm free...
2. I ride the seas...
e|-----------------------------------------------------|
B|-----------------------------------------------------|
G|-----------------------------------------------------|
D|9-5-9-5-9-5-9-5-9-5-9-5------------------------------|
A|------------------------10-7-10-7-10-7-10-7-10-7-10-7|
E|-----------------------------------------------------|

1. My honor is restored...
2. Free at last from whip and oar...
e|-------------------------------------------------------------|
B|-------------------------------------------------------------|
G|-------------------------------------------------------------|
D|-7-14-7-14-7-14-7-14-7-14-7-14-7-16-7-16-7-16-7-17-7-17-7-17-|
A|-------------------------------------------------------------|
E|-------------------------------------------------------------|

e|-------------------------------------------------|
B|-------------------------------------------------|
G|-------------------------------------------------|
D|-------------------------------------------------|
A|-5-9-5-9-5-9-5-9-5-9-5-9-4-9-4-9-4-9-4-9-4-9-4-9-|
E|-------------------------------------------------|





Verse 2 (x6):
I slide the sword into a sheath...
e|-----------------------------------------------|
B|-----------------------------------------------|
G|-----------------------------------------------|
D|-----------------------------------------------|
A|-----2-2-2-2-2-2-2-2-2-2-2-2-2-2-2-2-2-2-444444|
E|----0-0-0-0-0-0-0-0-0-0-0-0-0-0-0-0-0-0-0222222|
      * * * * * * * * * * * * * * * * * * *





Chorus , with Wah (x2):
I've missed the breeze...
e|--------------------------------------------------------------|
B|--------------------------------------------------------------|
G|----------------------7--7-7-7-7-7--7-7-7-7-11--11-11-11-11-11|
D|9--9-9-9-9-9--9-9-9-9-----------------------------------------|
A|--------------------------------------------------------------|
E|--------------------------------------------------------------|

Of my home shore...
e|-------------------------------------------------------------------------------------|
B|-------------------------------------------------------------------------------------|
G|--11-11-11-11-12--12-12-12-12-11-11-11-----------------------------------------------|
D|---------------------------------------12-12-12--11--11-11-11-11-11--11-11-11-7------|
A|-------------------------------------------------------------------------------------|
E|-------------------------------------------------------------------------------------|

The frozen lakes, and winter snow...
e|--------------------------------------------------------------------------------------|
B|--------------------------------------------------------------------------------------|
G|--------------------------------------------------------------------------------------|
D|7-7-7-7-7--7-7-7-7-2--2-2-2-2-2--2-2-2-2-2--2-2-2-2-2--2-2-2-2-5--5-5-5-5-5--5-5-5-5-9|
A|--------------------------------------------------------------------------------------|
E|--------------------------------------------------------------------------------------|

But now my dream starts to unfold...
e|------------------------------------------------------|
B|------------------------------------------------------|
G|------------------------------------------------------|
D|--9-9-9-9-9--9-9-9-9-12--12-12-12-12-12--12-12-12-12-9|
A|------------------------------------------------------|
E|------------------------------------------------------|

Father, I'm coming home...
e|-----------------------------------------------------------------|
B|-----------------------------------------------------------------|
G|-----------------------------------------------------------------|
D|9-9-9-9-9--9-9-9-9-9--9-9-9-9-9--9-9-9-9-9--9-9-9-9-9--9-9-9-9-11|
A|-----------------------------------------------------------------|
E|-----------------------------------------------------------------|

e|------------------------------------------------------------------------|
B|------------------------------------------------------------------------|
G|------------------------------------------------------------------------|
D|11-11-11-11-11--11-11-11-11-11--11-11-11-11--11-11-11-11-11--11-11-11-11|
A|------------------------------------------------------------------------|
E|------------------------------------------------------------------------|





Verse 3 (x6):
The storm devoured without remorse...
e|---------------------------------------------|
B|---------------------------------------------|
G|---------------------------------------------|
D|---------------------------------------------|
A|---2---------2--2---------2--2---------444444|
E|---0-0-0-0-0-0--0-0-0-0-0-0--0-0-0-0-0-222222|
       * * * *      * * * *      * * * *





Bridge:
Trills (3x)
The icy waves, embrace my skin, I am going down, The endless ocean swallows me, This 
will be my cold wet tomb! (I just love this part ;))
e|----------------------------|
B|----------------------------|
G|----------------------------|
D|11-9----7-4-9---7-2----5-4--|
A|----------------------------|
E|----------------------------|






Chorus , with Wah (x2):
Won't feel the breeze of my home shore...
e|--------------------------------------------------------------|
B|--------------------------------------------------------------|
G|----------------------7--7-7-7-7-7--7-7-7-7-11--11-11-11-11-11|
D|9--9-9-9-9-9--9-9-9-9-----------------------------------------|
A|--------------------------------------------------------------|
E|--------------------------------------------------------------|

Of my home shore...
e|-------------------------------------------------------------------------------------|
B|-------------------------------------------------------------------------------------|
G|--11-11-11-11-12--12-12-12-12-11-11-11-----------------------------------------------|
D|---------------------------------------12-12-12--11--11-11-11-11-11--11-11-11-7------|
A|-------------------------------------------------------------------------------------|
E|-------------------------------------------------------------------------------------|

Nor see the lakes or winter snow...
e|--------------------------------------------------------------------------------------|
B|--------------------------------------------------------------------------------------|
G|--------------------------------------------------------------------------------------|
D|7-7-7-7-7--7-7-7-7-2--2-2-2-2-2--2-2-2-2-2--2-2-2-2-2--2-2-2-2-5--5-5-5-5-5--5-5-5-5-9|
A|--------------------------------------------------------------------------------------|
E|--------------------------------------------------------------------------------------|

My hopeful dreams lie ripped and torn...
e|------------------------------------------------------|
B|------------------------------------------------------|
G|------------------------------------------------------|
D|--9-9-9-9-9--9-9-9-9-12--12-12-12-12-12--12-12-12-12-9|
A|------------------------------------------------------|
E|------------------------------------------------------|

Father, I die alone...
e|-----------------------------------------------------------------|
B|-----------------------------------------------------------------|
G|-----------------------------------------------------------------|
D|9-9-9-9-9--9-9-9-9-9--9-9-9-9-9--9-9-9-9-9--9-9-9-9-9--9-9-9-9-11|
A|-----------------------------------------------------------------|
E|-----------------------------------------------------------------|

I die alone!
e|------------------------------------------------------------------------|
B|------------------------------------------------------------------------|
G|------------------------------------------------------------------------|
D|11-11-11-11-11--11-11-11-11-11--11-11-11-11--11-11-11-11-11--11-11-11-11|
A|------------------------------------------------------------------------|
E|------------------------------------------------------------------------|





Solo, with Wah (use vibrato throughout the solo) - Play 'til the end (fade out):
e|-----------------------------------------------------|
B|-14-12--------12-------------------------------------|
G|--------14-11------14-9---11-9---9-7---6--7-4---6---9|
D|-----------------------------------------------------|
A|-----------------------------------------------------|
E|-----------------------------------------------------|
comments
We did not receive enough feedback on this tab! Please rate:
print report bad tab
1 2 3 4 5
3 comments total.
0 reply
Iced Earth9 wrote on January 29 2011, 01:16 pm

Sorry guys, I just wanted to say that it's normal if you have trouble playing the intro... It's because you need to tap it.

0 reply
Visual6 wrote on August 4 2011, 06:58 am

Thank you for E-tuning tab! Great song really!

0 reply
Iced Earth9 wrote on August 19 2011, 12:38 pm

Thanks! Some parts might sound wrong, buts it's just because of the tuning (since the song was really recorded in a much lower tuning).

I want to post or [tab]
guest
You may want to rate the tab now too:
select rating
Please do not post tabs as comments. Select "correction" instead!