Oops, an error
Loading. Please wait.

Fate Of Norns Bass Tab

version 2
version 2

Whole song

2,115 views 1 this week
no commentswrite comment
1 2 3 4 5
1 last vote to show rating
add to favorites
launch autoscroll
font size
0
reset
guitar tuner
Autoscroll
slow
fast
+/-
esc
set tempo
stop
Help us to improve Ultimate-Guitar.com Take our survey!
×
Author
Band: Amon Amarth
Song: Fate of Norns
Tuning: BEADG

Verse x6

|----------------------------|-------------------------|    
|----------------------------|-------------------------|
|----------------------------|-------------------------|
|----------------------------|-------------------------|
|--9-9-9----9----9-9-9---9---|-9-9-9---9---9-9-9---9---|

|-------------------------|--------------------------|
|-------------------------|--------------------------|
|-------------------------|--------------------------|
|-------------------------|--------------------------|
|-7-7-7---7---7-7-7---7---|-7-7-7---7---7-7-7---7----|
     

Chorus x2

|-------------------------------|-------------------------------|
|-------------------------------|-------------------------------|
|-------------------------------|-------------------------------|
|-4-4-4-4-4-4-4-4-4-4-4-4-4-4-4-|-4-4-4-4-4-4-4-4-4-4-4-4-4-4-4-|
|-------------------------------|-------------------------------|

|-------------------------------|-------------------------------|
|-------------------------------|-------------------------------|
|-------------------------------|-------------------------------|
|-2-2-2-2-2-2-2-2-2-2-2-2-2-2-2-|-2-2-2-2-2-2-2-2-2-2-2-2-2-2-2-|
|-------------------------------|-------------------------------|

|-------------------------------|-------------------------------|
|-------------------------------|-------------------------------|
|-------------------------------|-------------------------------|
|-0-0-0-0-0-0-0-0-0-0-0-0-0-0-0-|-0-0-0-0-0-0-0-0-0-0-0-0-0-0-0-|
|-------------------------------|-------------------------------|

|-------------------------------|-------------------------------|
|-------------------------------|-------------------------------|
|-------------------------------|-------------------------------|
|-2-2-2-2-2-2-2-2-2-2-2-2-2-2-2-|-2-2-2-2-2-2-2-2-2-2-2-2-2-2-2-|
|-------------------------------|-------------------------------|

Verse x4

|----------------------------|-------------------------|
|----------------------------|-------------------------|
|----------------------------|-------------------------|
|----------------------------|-------------------------|
|--9-9-9----9----9-9-9---9---|-9-9-9---9---9-9-9---9---|

|-------------------------|--------------------------|
|-------------------------|--------------------------|
|-------------------------|--------------------------|
|-------------------------|--------------------------|
|-7-7-7---7---7-7-7---7---|-7-7-7---7---7-7-7---7----|


Interlude A x4

|--------------------------|-----------------------------|
|--------------------------|-----------------------------|
|--------------------------|-----------------------------|
|--------------------------|-----------------------------|
|--0-0-0---0---0-0-0---0---|-0-0-0----0----0-0-0----0----|
 
|-------------------------|-------------------------|   
|-------------------------|-------------------------|
|-------------------------|-------------------------|
|-5-5-5---5---5-5-5---5---|-5-5-5---5---5-5-5---5---|
|-------------------------|-------------------------|
  
|-------------------------|-------------------------|
|-------------------------|-------------------------|
|-------------------------|-------------------------|
|-3-3-3---3---3-3-3---3---|-3-3-3---3---3-3-3---3---|
|-------------------------|-------------------------|  

|-------------------------|--------------------------|
|-------------------------|--------------------------|
|-------------------------|--------------------------|
|-2-2-2---2---2-2-2---2---|-2-2-2---2---5-5-5---5----|
|-------------------------|--------------------------|
  
Interlude B x4

|-------------|-------------|-------------|-------------|
|-------------|-------------|-------------|-------------|
|-------------|-------------|-------------|-------------|
|-3-3-3-3-3-3-|-3-3-3-3-3-3-|-0-0-0-0-0-0-|-0-0-0-0-0-0-|
|-------------|-------------|-------------|-------------|

|-------------|-------------|-------------|-------------|
|-------------|-------------|-------------|-------------|
|-------------|-------------|-------------|-------------|
|-------------|-------------|-2-2-2-2-2-2-|-2-2-2-2-2-2-|
|-1-1-1-1-1-1-|-1-1-1-1-1-1-|-------------|-------------|


Bridge

|-------------------------|-------------------------|
|-------------------------|-------------------------|
|-------------------------|-------------------------|
|-------------------------|-------------------------|
|-0-0-0-0-0-0-0-0-0-0-0-0-|-0-0-0-0-0-0-0-0-0-0-0-0-|
  - - - - - - - - - - - -   - - - - - - - - - - - -

Interlude x4

|-------------------------|-------------------------|
|-------------------------|-------------------------|
|-------------------------|-------------------------|
|-------2---2-------0---0-|-------------------------|
|-0-0-0---0---0-0-0---0---|-0-0-0-3-0-3-0-0-0-2-0-2-|

|-------------------|--------------------|
|-------------------|--------------------|
|-------------------|--------------------|
|-------------------|--------------------|
|-4--4-(4)-4-4--4-4-|-4--4-(4)-4-4--4-4--|

Chorus x6

|-------------------------------|-------------------------------|
|-------------------------------|-------------------------------|
|-------------------------------|-------------------------------|
|-4-4-4-4-4-4-4-4-4-4-4-4-4-4-4-|-4-4-4-4-4-4-4-4-4-4-4-4-4-4-4-|
|-------------------------------|-------------------------------|

|-------------------------------|-------------------------------|
|-------------------------------|-------------------------------|
|-------------------------------|-------------------------------|
|-2-2-2-2-2-2-2-2-2-2-2-2-2-2-2-|-2-2-2-2-2-2-2-2-2-2-2-2-2-2-2-|
|-------------------------------|-------------------------------|

|-------------------------------|-------------------------------|
|-------------------------------|-------------------------------|
|-------------------------------|-------------------------------|
|-0-0-0-0-0-0-0-0-0-0-0-0-0-0-0-|-0-0-0-0-0-0-0-0-0-0-0-0-0-0-0-|
|-------------------------------|-------------------------------|

|-------------------------------|-------------------------------|
|-------------------------------|-------------------------------|
|-------------------------------|-------------------------------|
|-2-2-2-2-2-2-2-2-2-2-2-2-2-2-2-|-2-2-2-2-2-2-2-2-2-2-2-2-2-2-2-|
|-------------------------------|-------------------------------|
Suggest correction
Give kudos to tab author, rate the tab!
1 2 3 4 5
comments
print report bad tab
guest
You may want to rate the tab now too:
select rating
Wanna post a correction for this tab? Suggest correction