Oops, an error
Loading. Please wait.

Father Of The Wolf bass

version 1
version 1

Whole song

Interactive

1,432 views 6 this week
no commentswrite comment
1 2 3 4 5
2 more votes to show rating
add to favorites
×
Save as Personal and add changes to this tab that will be seen only by you. Learn more ›
×
You can save this tab as Personal to edit and correct it or add notes. All changes will be seen only by you. Learn more »
launch autoscroll
font size
0
reset
guitar tuner
edit
Autoscroll
slow
fast
+/-
esc
set tempo
stop
Author
Difficulty
Intro
G|---------------------------|---------------------------|
D|---------------------------|---------------------------|
A|-4-4-4-4-4-4-4-4-4-4-4-4-4-|---------4-4-4-4-4-4-4-4-4-|
E|---------------------------|-0-0-0-0-------------------|

G|---------------------------|---------------------------|
D|---------------------------|---------------------------|
A|-4-4-4-4-4-4-4-4-4-4-4-4-4-|-0-0-0-0-0-0-0-0-0-0-0-0-0-|
E|---------------------------|---------------------------|

Instrumental
G|---------------------------|---------------------------|
D|---------------------------|---------------------------|
A|-4-4-4-4-4-4-4-4-4-4-4-4-4-|-4-4-4-4-4-4-4-4-4-4-4-4-4-|
E|---------------------------|---------------------------|

G|---------------------------|---------------------------|
D|---------------------------|---------------------------|
A|-4-4-4-4-4-4-4-4-4-4-4-4-4-|-2-2-2-2-2-2-2-2-2-2-2-2-2-|
E|---------------------------|---------------------------|

Verse
G|---------------------------|---------------------------|
D|---------------------------|---------------------------|
A|-4-4-4-4-4-4-4-4-4-4-4-4-4-|-4-4-4-4-4-4-4-4-4-4-4-4-4-|
E|---------------------------|---------------------------|

G|---------------------------|---------------------------|
D|---------------------------|---------------------------|
A|-4-4-4-4-4-4-4-4-4-4-4-4-4-|-0-0-0-0-0-0-0-0-0-0-0-0-0-|
E|---------------------------|---------------------------|

G|---------------------------|---------------------------|
D|---------------------------|---------------------------|
A|-4-4-4-4-4-4-4-4-4-4-4-4-4-|-4-4-4-4-4-4-4-4-4-4-4-4-4-|
E|---------------------------|---------------------------|

G|---------------------------|---------------------------|
D|---------------------------|---------------------------|
A|-4-4-4-4-4-4-4-4-4-4-4-4-4-|-2-2-2-2-2-2-2-2-2-2-2-2-2-|
E|---------------------------|---------------------------|

Chorus
G|---------------------------|---------------------------|
D|---------------------------|---------------------------|
A|-4--2--4------7--6--4------|-4--2--4------0------------|
E|---------------------------|-----------------4--2------|

G|---------------------------|---------------------------|
D|---------------------------|---------------------------|
A|-4--2--4------7--6--4------|-4--2--4------2--0--2------|
E|---------------------------|---------------------------|

Post-Chorus
G|---------------------------|---------------------------|
D|---------------------------|---------------------------|
A|---------------------------|---------------------------|
E|-4-4-4-4-4-4-4-4-4-4-4-4-4-|-4-4-4-4-4-4-4-4-4-4/12\4p0|

G|---------------------------|---------------------------|
D|---------------------------|---------------------------|
A|---------------------------|---------------------------|
E|-0-0-0-0-0-0-0-0-0-0-0-0-0-|-2-2-2-2-2-2-2-2-2-2-2-2-2-|

Verse
G|---------------------------|---------------------------|
D|---------------------------|---------------------------|
A|-4-4-4-4-4-4-4-4-4-4-4-4-4-|-4-4-4-4-4-4-4-4-4-4-4-4-4-|
E|---------------------------|---------------------------|

G|---------------------------|---------------------------|
D|---------------------------|---------------------------|
A|-4-4-4-4-4-4-4-4-4-4-4-4-4-|-0-0-0-0-0-0-0-0-0-0-0-0-0-|
E|---------------------------|---------------------------|

G|---------------------------|---------------------------|
D|---------------------------|---------------------------|
A|-4-4-4-4-4-4-4-4-4-4-4-4-4-|-4-4-4-4-4-4-4-4-4-4-4-4-4-|
E|---------------------------|---------------------------|

G|---------------------------|---------------------------|
D|---------------------------|---------------------------|
A|-4-4-4-4-4-4-4-4-4-4-4-4-4-|-2-2-2-2-2-2-2-2-2-2-2-2-2-|
E|---------------------------|---------------------------|

Chorus
G|---------------------------|---------------------------|
D|---------------------------|---------------------------|
A|-4--2--4------7--6--4------|-4--2--4------0------------|
E|---------------------------|-----------------4--2------|

G|---------------------------|---------------------------|
D|---------------------------|---------------------------|
A|-4--2--4------7--6--4------|-4--2--4------2--0--2------|
E|---------------------------|---------------------------|

Bridge
G|---------------------------|---------------------------|
D|---------------------------|---------------------------|
A|-4-4-4-4-4-4-4-4-4-4-4-4-4-|-2-2-2-2-2-2-2-2-2-2-2-2-2-|
E|---------------------------|---------------------------|

G|---------------------------|---------------------------|
D|---------------------------|---------------------------|
A|---------------------------|---------2-2-2-2-2-2-2-2-2-|
E|-2-2-2-2-2-2-2-2-2-2-2-2-2-|-0-0-0-0-------------------|

G|---------------------------|---------------------------|
D|---------------------------|---------------------------|
A|-4-4-4-4-4-4-4-4-4-4-4-4-4-|-2-2-2-2-2-2-2-2-2-2-2-2-2-|
E|---------------------------|---------------------------|

G|---------------------------|---------------------------|
D|---------------------------|---------------------------|
A|---------------------------|-0-0-0-0-2-2-2-2-2-2-2-2-2-|
E|-2-2-2-2-2-2-2-2-2-2-2-2-2-|---------------------------|

G|---------------------------|---------------------------|
D|---------------------------|---------------------------|
A|-4-4-4-4-4-4-4-4-4-4-4-4-4-|-2-2-2-2-2-2-2-2-2-2-2-2-2-|
E|---------------------------|---------------------------|

G|---------------------------|---------------------------|
D|---------------------------|---------------------------|
A|---------------------------|---------------------------|
E|-2-2-2-2-2-2-2-2-2-2-2-2-2-|-0-0-0-0-0-0-0-0-0-0-0-0-0-|

Solo
G|---------------------------|---------------------------|
D|---------------------------|---------------------------|
A|-4-4----------4-4----------|-4-4---------------4-4--4-4|
E|---------------------------|---------------------------|

G|---------------------------|---------------------------|
D|---------------------------|---------------------------|
A|-2-------------------------|-------------------2-2-2-2-|
E|---------------------------|---------------------------|

G|---------------------------|---------------------------|
D|---------------------------|---------------------------|
A|-4-4-4-4-4-4-4-4-4-4-4-4-4-|-0-0-0-0-0-0-0-0-0-0-0-0-0-|
E|---------------------------|---------------------------|

G|---------------------------|---------------------------|
D|---------------------------|---------------------------|
A|-2-2-2-2-2-2-2-2-2-2-2-2-2-|---------------------------|
E|---------------------------|-4-4-4-4-4-4-4-4-4-4-4-4-4-|

G|---------------------------|---------------------------|
D|---------------------------|---------------------------|
A|-4-4-4-4-4-4-4-4-4-4-4-4-4-|-0-0-0-0-0-0-0-0-0-0-0-0-0-|
E|---------------------------|---------------------------|

G|---------------------------|---------------------------|
D|---------------------------|---------------------------|
A|-2-2-2-2-2-2-2-2-2-2-2-2-2-|---------------------------|
E|---------------------------|-4-4-4-4-4-4-4-4-4-4-4-4-4-|

G|---------------------------|---------------------------|
D|---------------------------|---------------------------|
A|-4-4-4-4-4-4-4-4-4-4-4-4-4-|-2-2-2-2-2-2-2-2-2-2-2-2-2-|
E|---------------------------|---------------------------|

G|---------------------------|---------------------------|
D|---------------------------|---------------------------|
A|---------------------------|-0-0-0-0-0-0-0-0-0-0-0-0-0-|
E|-2-2-2-2-2-2-2-2-2-2-2-2-2-|---------------------------|

G|---------------------------|---------------------------|
D|---------------------------|---------------------------|
A|-4-4-4-4-4-4-4-4-4-4-4-4-4-|-2-2-2-2-2-2-2-2-2-2-2-2-2-|
E|---------------------------|---------------------------|

G|---------------------------|---------------------------|
D|---------------------------|---------------------------|
A|---------------------------|-0-0-0-0-0-0-0-0-0-0-0-0-0-|
E|-2-2-2-2-2-2-2-2-2-2-2-2-2-|---------------------------|

Chorus
G|---------------------------|---------------------------|
D|---------------------------|---------------------------|
A|-4--2--4------7--6--4------|-4--2--4------0------------|
E|---------------------------|-----------------4--2------|

G|---------------------------|---------------------------|
D|---------------------------|---------------------------|
A|-4--2--4------7--6--4------|-4--2--4-------0-0-0-0-0-0-|
E|---------------------------|---------------------------|

G|---------------------------|---------------------------|
D|---------------------------|---------------------------|
A|-4--2--4------7--6--4------|-4--2--4------2--0--2------|
E|---------------------------|---------------------------|

Post-Chorus
G|---------------------------|---------------------------|
D|---------------------------|---------------------------|
A|---------------------------|---------------------------|
E|-4-4-4-4-4-4-4-4-4-4-4-4-4-|-4-4-4-4-4-4-4-4-4-4/12\4p0|

G|---------------------------|---------------------------|
D|---------------------------|---------------------------|
A|---------------------------|---------------------------|
E|-0-0-0-0-0-0-0-0-0-0-0-0-0-|-2-2-2-2-2-2-2-2-2-2-2-2-2-|

G|---------------------------|---------------------------|
D|---------------------------|---------------------------|
A|---------------------------|---------------------------|
E|-4-4-4-4-4-4-4-4-4-4-4-4-4-|-4-4-4-4-4-4-4-4-4-4/12\4p0|

G|---------------------------|---------------------------|
D|---------------------------|---------------------------|
A|---------------------------|---------------------------|
E|-0-0-0-0-0-0-0-0-0-0-0-0-0-|-2-2-2-2-2-2-2-2-2-2-2-2-2-|

Final
G|---------------------------|
D|---------------------------|
A|-4--2--4-------------------|
E|---------------------------|

            
            
Suggest correction
Creating personal tab
Creating personal tab
You can edit any tab online and save it as your Personal.

You can edit, replace or remove any tab part or add personal notes – all changes will be seen only by you.

Personal tabs can be accessed anytime from any device, even offline.
Learn more »
Give kudos to tab author, rate the tab!
1 2 3 4 5
comments
print report bad tab
guest
You may want to rate the tab now too:
select rating
Wanna post a correction for this tab? Suggest correction