Oops, an error
Loading. Please wait.

Free Will Sacrifice Tab

version 2
version 2

Whole song

Interactive

4,510 views 1 this week
no commentswrite comment
1 2 3 4 5
3 more votes to show rating
add to favorites
launch autoscroll
font size
0
reset
how to read this tab
guitar tuner
Autoscroll
slow
fast
+/-
esc
set tempo
stop
Help us to improve Ultimate-Guitar.com Take our survey!
×
#----------------------------------PLEASE NOTE---------------------------------#
#This file is the author's own work and represents their interpretation of the #
#song. You may only use this file for private study, scholarship, or research. #
#------------------------------------------------------------------------------##

                               FREE WILL SACRIFICE
                           As recorded by Amon Amarth
                (From the 2008 Album TWILIGHT OF THE THUNDER GOD)

Words and Music by Amon Amarth
Transcribed by GuitarHeroJP

Gtr I (B E A D F# B) - 'Guitar I'
Gtr II (B E A D F# B) - 'Guitar II'

 Intro
  Q=171
 4/4
  Gtr I
    PM--|   PM|     PM  PM  PM----|     PM--|   PM|     PM  PM|
  E E E E E E E E   E E E E E E E E   E E E E E E E E   E E E E   Q   Q
|-----------------|-----------------|-----------------|--------------------|
|-----------------|-----------------|-----------------|--------------------|
|-----------------|-----------------|-----------------|--------------------|
|-----------------|-----------------|-----------------|--------------------|
|-2-------2-----2-|---2---2---------|-2-------2-----2-|---2----------------|
|-0-0-0-0-0-0-0-0-|-0-0-0-0-0-0-0-0-|-0-0-0-0-0-0-0-0-|-0-0-0-0-/10--10----|
|
| Gtr II
|                                                           PM|
|                                                       Q   E E   Q   Q
|-----------------|-----------------|-----------------|--------------------|
|-----------------|-----------------|-----------------|--------------------|
|-----------------|-----------------|-----------------|--------------------|
|-----------------|-----------------|-----------------|--------------------|
|-----------------|-----------------|-----------------|--------------------|
|-----------------|-----------------|-----------------|-----0-0-/10--10----|


   Main Riff & Verse
    $
    Gtrs I, II
      PM--|   PM|     PM  PM  PM-----|        PM|   PM|     PM  PM|    PM   PM
    E E E E E E E E   E E E E E E  E  E   Q   E E E E E E   E E E E  E E  E E
||------------------|-------------------|-----------------|--------------------|
||o-----------------|-------------------|-----------------|--------------------|
||------------------|-------------------|-----------------|--------------------|
||------------------|----------------10-|-9\--------------|---4----------10----|
||o-2-------2-----2-|---2---2-----10--8-|-7\------2-----2-|---2-----10----8----|
||--0-0-0-0-0-0-0-0-|-0-0-0-0-5-7--8----|-----0-0-0-0-0-0-|-0---0-0--8-0----0--|


      PM|   PM|     PM  PM  PM-----|        PM|   PM|     PM  PM|
  Q   E E E E E E   E E E E E E  E  E   Q   E E E E E E   E E E E   Q   Q
|-----------------|-------------------|-----------------|-------------------||
|-----------------|-------------------|-----------------|------------------o||
|-----------------|-------------------|-----------------|-------------------||
|-9\--------------|----------------10-|-9\--------------|-------------------||
|-7\------2-----2-|---2---2-----10--8-|-7\------2-----2-|---2--------------o||
|-----0-0-0-0-0-0-|-0-0-0-0-5-7--8----|-----0-0-0-0-0-0-|-0-0-0-0-/10--10---||


   Chorus
    Gtr I
     E  E  E  E  E  E  E  E    E  E  E  E  E  E  E  E
||--------------------------|-------------------------|
||o-------------------------|-------------------------|
||--------------------------|-------------------------|
||--14-14-14-14-14-14-------|-17-17-17-16-16-16-14-14-|
||o-------------------14-14-|-------------------------|
||--------------------------|-------------------------|
|
|   Gtr II
|    E  E  E  E  E  E  E  E    E  E  E  E  E  E  E  E
||--------------------------|-------------------------|
||o-------------------------|-------------------------|
||--------------------------|-------------------------|
||--------------------------|-------------------------|
||o--2--2--2--2--2--2--2--2-|--2--2--2--2--2--2--2--2-|
||---0--0--0--0--0--0--0--0-|--0--0--0--0--0--0--0--0-|


   E  E  E  E  E  E  E  E    E  E  E  E  E  E  E  E
|-------------------------|---------------------------||
|-------------------------|--------------------------o||
|-------------------------|---------------------------||
|-14----------------------|---------------------------||
|----17-17-17-17-17-17-17-|-17-15-15-15-15-17-17-17--o||
|-------------------------|---------------------------||
|
|  E  E  E  E  E  E  E  E    E  E  E  E  E  E  E  E
|-------------------------|---------------------------||
|-------------------------|--------------------------o||
|-------------------------|---------------------------||
|--5--5--5--5--5--5--5--5-|--5--5--5--5--5--5--7--7---||
|--3--3--3--3--3--3--3--3-|--3--3--3--3--3--3--5--5--o||
|-------------------------|---------------------------||


D.S.
     E  E  E  E  E  E  E  E    E  E  E  E  E  E  E  E
||--------------------------|-------------------------|
||o-------------------------|-------------------------|
||--------------------------|-------------------------|
||--14-14-14-14-14-14-------|-17-17-17-16-16-16-14-14-|
||o-------------------14-14-|-------------------------|
||--------------------------|-------------------------|
|
|    E  E  E  E  E  E  E  E    E  E  E  E  E  E  E  E
||--------------------------|-------------------------|
||o-------------------------|-------------------------|
||--------------------------|-------------------------|
||--------------------------|-------------------------|
||o--2--2--2--2--2--2--2--2-|--2--2--2--2--2--2--2--2-|
||---0--0--0--0--0--0--0--0-|--0--0--0--0--0--0--0--0-|


   E  E  E  E  E  E  E  E    E  E  E  E  E  E  E  E
|-------------------------|---------------------------||
|-------------------------|--------------------------o||
|-------------------------|---------------------------||
|-14----------------------|---------------------------||
|----17-17-17-17-17-17-17-|-17-15-15-15-15-17-17-17--o||
|-------------------------|---------------------------||
|
|  E  E  E  E  E  E  E  E    E  E  E  E  E  E  E  E
|-------------------------|---------------------------||
|-------------------------|--------------------------o||
|-------------------------|---------------------------||
|--5--5--5--5--5--5--5--5-|--5--5--5--5--5--5--7--7---||
|--3--3--3--3--3--3--3--3-|--3--3--3--3--3--3--5--5--o||
|-------------------------|---------------------------||


   Break
     S  S  S  S  S  S  S  S  S  S  S  S  S  S  S  S
||--------------------------------------------------|
||o-------------------------------------------------|
||--------------------------------------------------|
||--------------------------------------------------|
||o-10-10-10-10-10-10-10-10-10-10-10-10-12-12-12-12-|
||--------------------------------------------------|
|
|    S  S  S  S  S  S  S  S  S  S  S  S  S  S  S  S
||--------------------------------------------------|
||o-------------------------------------------------|
||--------------------------------------------------|
||--------------------------------------------------|
||o-------------------------------------------------|
||---3--3--3--3--3--3--3--3--3--3--3--3--3--3--3--3-|


   S  S  S  S  S  S  S  S  S  S  S  S  S  S  S  S
|--------------------------------------------------|
|--------------------------------------------------|
|--------------------------------------------------|
|--------------------------------------------------|
|-13-13-13-13-13-13-12-12-12-12-12-12-10-10-10-10--|
|--------------------------------------------------|
|
|  S  S  S  S  S  S  S  S  S  S  S  S  S  S  S  S
|--------------------------------------------------|
|--------------------------------------------------|
|--------------------------------------------------|
|--------------------------------------------------|
|--------------------------------------------------|
|--3--3--3--3--3--3--3--3--3--3--3--3--3--3--3--3--|


   S  S  S  S  S  S  S  S  S  S  S  S  S  S  S  S
|-------------------------------------------------|
|-------------------------------------------------|
|-------------------------------------------------|
|-12-12-12-12-12-12-12-12-12-12-12-12-12-12-12-12-|
|-------------------------------------------------|
|-------------------------------------------------|
|
|  S  S  S  S  S  S  S  S  S  S  S  S  S  S  S  S
|-------------------------------------------------|
|-------------------------------------------------|
|-------------------------------------------------|
|-------------------------------------------------|
|--5--5--5--5--5--5--5--5--5--5--5--5--5--5--5--5-|
|-------------------------------------------------|


   S  S  S  S  S  S  S  S  S  S  S  S  S  S  S  S
|-------------------------------------------------|
|-------------------------------------------------|
|-------------------------------------------------|
|-------------------------------------------------|
|-12-12-12-12-12-12-12-12-12-12-12-12-12-12-12-12-|
|-------------------------------------------------|
|
|  S  S  S  S  S  S  S  S  S  S  S  S  S  S  S  S
|-------------------------------------------------|
|-------------------------------------------------|
|-------------------------------------------------|
|-------------------------------------------------|
|--5--5--5--5--5--5--5--5--5--5--5--5--5--5--5--5-|
|-------------------------------------------------|


   S  S  S  S  S  S  S  S  S  S  S  S  S  S  S  S
|-------------------------------------------------|
|-------------------------------------------------|
|-------------------------------------------------|
|-10-10-10-10-10-10-10-10-10-10-10-10-12-12-12-12-|
|-------------------------------------------------|
|-------------------------------------------------|
|
|  S  S  S  S  S  S  S  S  S  S  S  S  S  S  S  S
|-------------------------------------------------|
|-------------------------------------------------|
|-------------------------------------------------|
|-------------------------------------------------|
|--3--3--3--3--3--3--3--3--3--3--3--3--3--3--3--3-|
|-------------------------------------------------|


   S  S  S  S  S  S  S  S  S  S  S  S  S  S  S  S
|-------------------------------------------------|
|-------------------------------------------------|
|-------------------------------------------------|
|-13-13-13-13-13-13-12-12-12-12-12-12-------------|
|-------------------------------------13-13-13-13-|
|-------------------------------------------------|
|
|  S  S  S  S  S  S  S  S  S  S  S  S  S  S  S  S
|-------------------------------------------------|
|-------------------------------------------------|
|-------------------------------------------------|
|-------------------------------------------------|
|--3--3--3--3--3--3--3--3--3--3--3--3--3--3--3--3-|
|-------------------------------------------------|


   S  S  S  S  S  S  S  S  S  S  S  S  S  S  S  S
|-------------------------------------------------|
|-------------------------------------------------|
|-------------------------------------------------|
|-10-10-10-10-12-12-12-12-12-12-12-12-12-12-12-12-|
|-------------------------------------------------|
|-------------------------------------------------|
|
|  S  S  S  S  S  S  S  S  S  S  S  S  S  S  S  S
|-------------------------------------------------|
|-------------------------------------------------|
|-------------------------------------------------|
|-------------------------------------------------|
|--1--1--1--1--1--1--1--1--1--1--1--1--1--1--1--1-|
|-------------------------------------------------|


   S  S  S  S  S  S  S  S  S  S  S  S  S  S  S  S  4x
|--------------------------------------------------||
|-------------------------------------------------o||
|--------------------------------------------------||
|-10-10-10-10--------------------------------------||
|-------------13-13-13-13-13-13-13-13-12-12-12-12-o||
|--------------------------------------------------||
|
|  S  S  S  S  S  S  S  S  S  S  S  S  S  S  S  S  4x
|--------------------------------------------------||
|-------------------------------------------------o||
|--------------------------------------------------||
|--------------------------------------------------||
|--1--1--1--1--1--1--1--1--1--1--1--1--0--0--0--0-o||
|--------------------------------------------------||


   Breakdown
    Gtrs I, II
       PM--------|          PM------------|        PM--|         PM--------|
    Q  S S S S E E  Q    Q  S S S S E E E E   Q  E E E E Q    Q  E E E E E E
||---------------------|--------------------|---------------|-----------------|
||o--------------------|--------------------|---------------|-----------------|
||---------------------|--------------------|---------------|-----------------|
||--9--------------10--|-9------------------|---------------|-----------------|
||o-7---------------8--|-7------------------|-5--5-------3--|-2---------------|
||-----0-0-0-0-0-0-----|----0-0-0-0-0-0-0-0-|-3--3-0-3-0-1--|-0--0-0-0-0-0-0--|


     PM--------|          PM------------|      PM--|   PM       PM--------|
  Q  S S S S E E  Q    Q  S S S S E E E E   Q  E E E E E E   Q  E E E E E E
|--------------------|--------------------|----------------|-----------------||
|--------------------|--------------------|----------------|----------------o||
|--------------------|--------------------|----------------|-----------------||
|-9--------------10--|-9------------------|----------4-----|-----------------||
|-7---------------8--|-7------------------|-7--------2---5-|-2--------------o||
|----0-0-0-0-0-0-----|----0-0-0-0-0-0-0-0-|-5--5-5-5---0-3-|-0--0-0-0-0-0-0--||


   Key Change
    Gtr I
     E  E  E  E  E  E  E  E    E  E  E  E  E  E  E  E
||--------------------------|-------------------------|
||o-------------------------|-------------------------|
||--12-12-12-12-12-12-14-14-|-15-15-15-14-14-14-12-12-|
||--------------------------|-------------------------|
||o-------------------------|-------------------------|
||--------------------------|-------------------------|
|
|   Gtr II
|    E  E  E  E  E  E  E  E    E  E  E  E  E  E  E  E
||--------------------------|-------------------------|
||o-------------------------|-------------------------|
||--------------------------|-------------------------|
||--------------------------|-------------------------|
||o--5--5--5--5--5--5--5--5-|--5--5--5--5--5--5--5--5-|
||---3--3--3--3--3--3--3--3-|--3--3--3--3--3--3--3--3-|


   E  E  E  E  E  E  E  E    E  E  E  E  E  E  E  E
|-------------------------|--------------------------|
|-------------------------|--------------------------|
|-12----------------------|--------------------------|
|----15-15-15-15-15-15-15-|-15-13-13-13-13-15-15-15--|
|-------------------------|--------------------------|
|-------------------------|--------------------------|
|
|  E  E  E  E  E  E  E  E    E  E  E  E  E  E  E  E
|-------------------------|--------------------------|
|-------------------------|--------------------------|
|-------------------------|--------------------------|
|--7--7--7--7--7--7--7--7-|--7--7--7--7--7--7--7--7--|
|--5--5--5--5--5--5--5--5-|--5--5--5--5--5--5--5--5--|
|-------------------------|--------------------------|


   E  E  E  E  E  E  E  E    E  E  E  E  E  E  E  E
|-------------------------|-------------------------|
|-------------------------|-------------------------|
|-12-12-12-12-12-12-14-14-|-15-15-15-14-14-14-12-12-|
|-------------------------|-------------------------|
|-------------------------|-------------------------|
|-------------------------|-------------------------|
|
|  E  E  E  E  E  E  E  E    E  E  E  E  E  E  E  E
|-------------------------|-------------------------|
|-------------------------|-------------------------|
|-------------------------|-------------------------|
|--5--5--5--5--5--5--5--5-|--5--5--5--5--5--5--5--5-|
|--3--3--3--3--3--3--3--3-|--3--3--3--3--3--3--3--3-|
|-------------------------|-------------------------|


   E  E  E  E  E  E  E  E    E  E  E  E  E  E  E  E
|-------------------------|--------------------------||
|-------------------------|-------------------------o||
|-12----------------------|--------------------------||
|----15-15-15-15-15-15-15-|-15-13-13-13-13-15-15-15--||
|-------------------------|-------------------------o||
|-------------------------|--------------------------||
|
|  E  E  E  E  E  E  E  E    E  E  E  E  E  E  E  E
|-------------------------|--------------------------||
|-------------------------|-------------------------o||
|-------------------------|--------------------------||
|--3--3--3--3--3--3--3--3-|--3--3--3--3--3--3--2--2--||
|--1--1--1--1--1--1--1--1-|--1--1--1--1--1--1--0--0-o||
|-------------------------|--------------------------||


   Outro
    Gtrs I, II
       PM--------|          PM------------|        PM--|         PM--------|
    Q  S S S S E E  Q    Q  S S S S E E E E   Q  E E E E Q    Q  E E E E E E
||---------------------|--------------------|---------------|-----------------|
||o--------------------|--------------------|---------------|-----------------|
||---------------------|--------------------|---------------|-----------------|
||--9--------------10--|-9------------------|---------------|-----------------|
||o-7---------------8--|-7------------------|-5--5-------3--|-2---------------|
||-----0-0-0-0-0-0-----|----0-0-0-0-0-0-0-0-|-3--3-0-3-0-1--|-0--0-0-0-0-0-0--|


                                                             1.
     PM--------|          PM------------|      PM--|   PM       PM--------|
  Q  S S S S E E  Q    Q  S S S S E E E E   Q  E E E E E E   Q  E E E E E E
|--------------------|--------------------|----------------|-----------------||
|--------------------|--------------------|----------------|----------------o||
|--------------------|--------------------|----------------|-----------------||
|-9--------------10--|-9------------------|----------4-----|-----------------||
|-7---------------8--|-7------------------|-7--------2---5-|-2--------------o||
|----0-0-0-0-0-0-----|----0-0-0-0-0-0-0-0-|-5--5-5-5---0-3-|-0--0-0-0-0-0-0--||


  2.
  Q H.
|---------|
|---------|
|---------|
|---------|
|-2-------|
|-0-------|


Duration Legend
---------------
W - whole; H - half; Q - quarter; E - 8th; S - 16th; T - 32nd; X - 64th; a - acciaccatura
+ - note tied to previous; . - note dotted; .. - note double dotted
Uncapitalized letters represent notes that are staccato (1/2 duration)
Irregular groupings are notated above the duration line
Duration letters will always appear directly above the note/fret number it represents the
duration for.  Duration letters with no fret number below them represent rests.  Multi-
bar rests are notated in the form Wxn, where n is the number of bars to rest for.  Low
melody durations appear below the staff

Tablature Legend
----------------
 h   - hammer-on
 p   - pull-off
 b   - bend
 pb  - pre-bend
 r   - bend release (if no number after the r, then release immediately)
 /\  - slide into or out of (from/to "nowhere")
 s   - legato slide
 S   - shift slide
  - natural harmonic
[n]  - artificial harmonic
n(n) - tapped harmonic
 ~   - vibrato
 tr  - trill
 T   - tap
 TP  - trem. picking
 PM  - palm muting
\n/  - tremolo bar dip; n = amount to dip
 \n  - tremolo bar down
 n/  - tremolo bar up
/n\  - tremolo bar inverted dip
 =   - hold bend; also acts as connecting device for hammers/pulls
 <>  - volume swell (louder/softer)
 x   - on rhythm slash represents muted slash
 o   - on rhythm slash represents single note slash

Misc Legend
-----------
 |  - bar
||  - double bar
||o - repeat start
o|| - repeat end
*|  - double bar (ending)
 :  - bar (freetime)
 $  - Segno
 &  - Coda
Tempo markers -  = BPM(8/16=s8/s16), where s8 = swing 8ths, s16 = swing 16ths


***************************************************************************************
* Generated using Power Tab Editor by Brad Larsen - http://powertab.guitarnetwork.org *
***************************************************************************************
Suggest correction
Give kudos to tab author, rate the tab!
1 2 3 4 5
comments
print report bad tab
guest
You may want to rate the tab now too:
select rating
Wanna post a correction for this tab? Suggest correction