Oops, an error
Loading. Please wait.

Guardians Of Asgaard Bass Tab

version 1
version 1

Whole song

Interactive

9,847 views 15 this week
2 commentsread comments
1 2 3 4 5
excellent!
x 6
add to favorites
launch autoscroll
font size
0
reset
guitar tuner
Autoscroll
slow
fast
+/-
esc
set tempo
stop
Help us to improve Ultimate-Guitar.com Take our survey!
×
Author
Difficulty
-------------------------------------------------------------------------------
                             Amon Amarth - Guardians Of Asgaard
-------------------------------------------------------------------------------

Tabbed By : Tank Adams
e-mail: yr7boy@hotmail.co.uk

Tuning: EADGBE (E Standard)

  Intro/Main Riff

G|---------------------------------------------------------------------------|
D|---------------------------------------------------------------------------|
A|4-4-7-4-5--4-4-7-4-0--4-4-7-4-5--4-4-7-4-0-0-------------------------------|
E|---------------------------------------------------------------------------|

  Verse 1 7X

G|---------------------------------------------------------------------------|
D|---------------------------------------------------------------------------|
A|4-4-4-4-4-4-4-4-0-0-0-0-0-0-0-0--------------------------------------------|
E|---------------------------------------------------------------------------|

  Verse 1 Variation 1X

G|---------------------------------------------------------------------------|
D|---------------------------------------------------------------------------|
A|---------------------------------------------------------------------------|
E|0-0-0-0-0-0-0-0-4-4-4-4-4-4-4-4--------------------------------------------|

  Chorus 1/Main Riff 1X

G|---------------------------------------------------------------------------|
D|---------------------------------------------------------------------------|
A|4-4-7-4-5--4-4-7-4-0--4-4-7-4-5--4-4-7-4-0-0-------------------------------|
E|---------------------------------------------------------------------------|

 Chorus 1/Main Riff Variation 2X

G|-----------------------------------------------------------------------------|
D|----------4-------------------------4----------------------------------------|
A|4-4-7-4-5---5--4-4-7-4-0--4-4-7-4-5---5--4-4-7-0-0---------------------------|
E|-----------------------------------------------------------------------------|

 Verse 2 6X

G|---------------------------------------------------------------------------|
D|---------------------------------------------------------------------------|
A|4-4-4-4-4-4-4-4-0-0-0-0-0-0-0-0--------------------------------------------|
E|---------------------------------------------------------------------------|

 Verse 2 Variation 1X

G|---------------------------------------------------------------------------|
D|---------------------------------------------------------------------------|
A|---------------------------------------------------------------------------|
E|0-0-0-0-0-0-0-0-4-4-4-4-4-4-4-4--------------------------------------------|

 Chorus 2/Main Riff 1X

G|---------------------------------------------------------------------------|
D|---------------------------------------------------------------------------|
A|4-4-7-4-5--4-4-7-4-0--4-4-7-4-5--4-4-7-4-0-0-------------------------------|
E|---------------------------------------------------------------------------|

 Chorus 2/Main Riff Variation 2X

G|-----------------------------------------------------------------------------|
D|----------4-------------------------4----------------------------------------|
A|4-4-7-4-5---5--4-4-7-4-0--4-4-7-4-5---5--4-4-7-0-0---------------------------|
E|-----------------------------------------------------------------------------|

 Bridge 3X

G|---------------------------------------------------------------------------|
D|---------------------------------------------------------------------------|
A|4-4-4-4-4-4-4-4-0-0-0-0-0-0-0-0--------------------------------------------|
E|--------------------------------0-0-0-0-0-0-0-0-4-4-4-4-4-4-4-4------------|

 Solo 3X

G|---------------------------------------------------------------------------|
D|---------------------------------------------------------------------------|
A|---------------------------------------------------------------------------|
E|5~--------0~---------------------------------------------------------------|

 Solo Variation 1X

G|---------------------------------------------------------------------------|
D|---------------------------------------------------------------------------|
A|---------------------------------------------------------------------------|
E|5~--------0~-----4-5-------------------------------------------------------|

 Outro Chorus/Main Riff 1X

G|---------------------------------------------------------------------------|
D|---------------------------------------------------------------------------|
A|4-4-7-4-5--4-4-7-4-0--4-4-7-4-5--4-4-7-4-0-0-------------------------------|
E|---------------------------------------------------------------------------|

 Outro Chorus/Main Riff Variation 3X

G|-----------------------------------------------------------------------------|
D|----------4-------------------------4----------------------------------------|
A|4-4-7-4-5---5--4-4-7-4-0--4-4-7-4-5---5--4-4-7-0-0---------------------------|
E|-----------------------------------------------------------------------------|


| /  slide up
| \  slide down
| h  hammer-on
| p  pull-off
| ~  vibrato
| +  harmonic
| x  Mute note
===============================================================================
Suggest correction
comments
print report bad tab
2 comments total.
0 reply
ForgottenIdiot 20 wrote on February 17 2013, 03:59 pm

The song is actually in drop A
So for anything on the A string on this tab, just tune your B to A then play it on there.

0 reply
Sir Maggot 10 wrote on April 22 2014, 05:43 pm, edited on April 24 2014, 09:25 pm

Aside from the song being played in AEADG or just AEAD, this tab looks and sounds great.

guest
You may want to rate the tab now too:
select rating
Please do not post tabs as comments. Select "correction" instead!