Oops, an error
Loading. Please wait.

Guardians Of Asgaard Tab

version 1
version 1

Whole song

Interactive

83,360 views 144 this week
5 commentsread comments
1 2 3 4 5
accurate
x 4
add to favorites
launch autoscroll
font size
0
reset
how to read this tab
guitar tuner
Tab Pro tools
  • play this tab
  • loop segment
  • change instrument
  • show fretboard
  • metronome
×
Best way to learn
"Guardians Of Asgaard"
Autoscroll
slow
fast
+/-
esc
set tempo
stop
Contributor
#----------------------------------PLEASE NOTE---------------------------------#
#This file is the author's own work and represents their interpretation of the #
#song. You may only use this file for private study, scholarship, or research. #
#------------------------------------------------------------------------------##

                              GUARDIANS OF ASGAARD
                           As recorded by Amon Amarth
                (From the 2008 Album TWILIGHT OF THE THUNDER GOD)

Words and Music by Amon Amarth
Transcribed by GuitarHero_JP

Gtr I (A E A D F# B) - 'Guitar I'
Gtr II (A E A D F# B) - 'Guitar II'
Gtr III (A E A D F# B) - 'Solo Guitar'

   Intro
    Q=135
   4/4
    Gtrs I, II
    E E E E H      E E E E H      E E E E H
||---------------|--------------|--------------|
||o--------------|--------------|--------------|
||---------------|--------------|--------------|
||---------------|--------------|--------------|
||o-4-4-7-4-5----|-4-4-7-4-0----|-4-4-7-4-5----|
||--4-4-7-4-5----|-4-4-7-4-0----|-4-4-7-4-5----|


  1.               2.
                            PM-|
  E E E E H         E E E E Q  Q
|---------------||----------------|
|--------------o||----------------|
|---------------||----------------|
|---------------||----------------|
|-4-4-7-4-0----o||--4-4-7-4-0--0--|
|-4-4-7-4-0-----||--4-4-7-4-0--0--|


   Main Riff & Verse
      PM|     PM  PM    PM|     PM  PM    PM|     PM  PM    PM|     PM  PM
    E E E E E E E E   E E E E E E E E   E E E E E E E E   E E E E E E E E
||------------------|-----------------|-----------------|-------------------||
||o-----------------|-----------------|-----------------|------------------o||
||------------------|-----------------|-----------------|-------------------||
||--4---------------|-----------------|-----------------|-------------------||
||o-------7-4---4---|-5-----7-4---4---|-5-----5-4---4---|-2-----2-4---4----o||
||----4-4-----4---4-|---4-4-----4---4-|---0-0-----0---0-|---0-0-----0---0---||


   Pre-Chorus
    Gtr I
      PM|     PM  PM--|     PM  PM  PM    PM|     PM  PM--|     PM  PM  PM
    E E E E E E E E   E E E E E E E E   E E E E E E E E   E E E E E E E E   3x
||------------------|-----------------|-----------------|-------------------||
||o-----------------|-----------------|-----------------|------------------o||
||--6-----4-6-------|---4-6-------4---|-7-----6-7---4---|---6-7---6---4-----||
||--------------7---|---------7-------|-----------------|-------------------||
||o-----------------|-----------------|-----------------|------------------o||
||----4-4-----4---4-|-4-----4---4---4-|---0-0-----0---0-|-0-----0---0---0---||
|
|   Gtr II
|   PM------------------------------------------------------------------|
|   E E E E E E E E   E E E E E E E E   E E E E E E E E   E E E E E E E E   3x
||------------------|-----------------|-----------------|-------------------||
||o-----------------|-----------------|-----------------|------------------o||
||------------------|-----------------|-----------------|-------------------||
||------------------|-----------------|-----------------|-------------------||
||o-4-4-4-4-4-4-4-4-|-4-4-4-4-4-4-4-4-|-0-0-0-0-0-0-0-0-|-0-0-0-0-0-0-0-0--o||
||--4-4-4-4-4-4-4-4-|-4-4-4-4-4-4-4-4-|-0-0-0-0-0-0-0-0-|-0-0-0-0-0-0-0-0---||


    PM|     PM  PM--|     PM  PM  PM    PM|     PM  PM--|     PM  PM--|
  E E E E E E E E   E E E E E E E E   E E E E E E E E   E E E E E E E E
|-----------------|-----------------|-----------------|-----------------|
|-----------------|-----------------|-----------------|-----------------|
|-6-----4-6-------|---4-6-------4---|-6-----4-6-------|---4-6-----------|
|-------------7---|---------7-------|-------------6---|---------6-------|
|---0-0-----0---0-|-0-----0---0---0-|---4-4-----4---4-|-4-----4---4-4-4-|
|-----------------|-----------------|-----------------|-----------------|
|
| PM------------------------------------------------------------------|
| E E E E E E E E   E E E E E E E E   E E E E E E E E   E E E E E E E E
|-----------------|-----------------|-----------------|-----------------|
|-----------------|-----------------|-----------------|-----------------|
|-----------------|-----------------|-----------------|-----------------|
|-----------------|-----------------|-6-6-6-6-6-6-6-6-|-6-6-6-6-6-6-6-6-|
|-7-7-7-7-7-7-7-7-|-7-7-7-7-7-7-7-7-|-4-4-4-4-4-4-4-4-|-4-4-4-4-4-4-4-4-|
|-7-7-7-7-7-7-7-7-|-7-7-7-7-7-7-7-7-|-----------------|-----------------|


   Chorus
    Gtrs I, II
    E E E E H      E E E E H      E E E E H
||---------------|--------------|--------------|
||o--------------|--------------|--------------|
||---------------|--------------|--------------|
||---------------|--------------|--------------|
||o-4-4-7-4-5----|-4-4-7-4-0----|-4-4-7-4-5----|
||--4-4-7-4-5----|-4-4-7-4-0----|-4-4-7-4-5----|


  1.               2.
                           PM-|
  E E E E H        E E E E Q  Q
|---------------||----------------|
|--------------o||----------------|
|---------------||----------------|
|---------------||----------------|
|-4-4-7-4-0----o||-4-4-7-4-0--0---|
|-4-4-7-4-0-----||-4-4-7-4-0--0---|


                                                             PM----|
    E E E E Q  Q     E E E E H      E E E E Q  Q     E E E E E E E E
||-----------------|--------------|----------------|-------------------||
||o----------------|--------------|----------------|------------------o||
||-----------------|--------------|----------------|-------------------||
||-----------------|--------------|----------------|-------------------||
||o-4-4-7-4-5------|-4-4-7-4-0----|-4-4-7-4-5------|-4-4-7-4-0-0-0-0--o||
||--4-4-7-4-5--9\--|-4-4-7-4-0----|-4-4-7-4-5--9\--|-4-4-7-4-0-0-0-0---||


 Interlude
  Gtr I
   S  S  S  S  S  S S S  S  S  S  S  S  S  S  S
|-----------------------------------------------|
|-----------------------------------------------|
|-----------------------------------------------|
|-11-11-11-11-11-11-9-9-11-11-11-11-------------|
|-----------------------------------12-12-12-12-|
|-----------------------------------------------|
|
| Gtr II
|  S  S  S  S  S  S S S  S  S  S  S  S  S  S  S
|-----------------------------------------------|
|-----------------------------------------------|
|-----------------------------------------------|
|-----------------------------------------------|
|-----------------------------------------------|
|--4--4--4--4--4--4-4-4--4--4--4--4--4--4--4--4-|


   S  S  S  S  S  S  S  S S S S S  S  S  S  S
|---------------------------------------------|
|---------------------------------------------|
|---------------------------------------------|
|-------------11-11-11-11-9-9-9-9-------------|
|-12-12-12-12---------------------12-12-12-12-|
|---------------------------------------------|
|
|  S  S  S  S  S  S  S  S S S S S  S  S  S  S
|---------------------------------------------|
|---------------------------------------------|
|---------------------------------------------|
|---------------------------------------------|
|---------------------------------------------|
|--4--4--4--4--4--4--4--4-4-4-4-4--4--4--4--4-|


   S  S  S  S  S  S  S  S  S  S  S  S  S  S  S  S
|-------------------------------------------------|
|-------------------------------------------------|
|-------------------------------------------------|
|-12-12-12-12-12-12-11-11-12-12-12-12-------------|
|-------------------------------------14-14-14-14-|
|-------------------------------------------------|
|
|  S  S  S  S  S  S  S  S  S  S  S  S  S  S  S  S
|-------------------------------------------------|
|-------------------------------------------------|
|-------------------------------------------------|
|-------------------------------------------------|
|-------------------------------------------------|
|--0--0--0--0--0--0--0--0--0--0--0--0--0--0--0--0-|


   S  S  S  S  S  S  S  S  S  S  S  S  S  S  S  S
|-------------------------------------------------|
|-------------------------------------------------|
|-------------------------------------------------|
|-------------12-12-12-12-11-11-11-11-------------|
|-14-14-14-14-------------------------14-14-14-14-|
|-------------------------------------------------|
|
|  S  S  S  S  S  S  S  S  S  S  S  S  S  S  S  S
|-------------------------------------------------|
|-------------------------------------------------|
|-------------------------------------------------|
|-------------------------------------------------|
|-------------------------------------------------|
|--0--0--0--0--0--0--0--0--0--0--0--0--0--0--0--0-|


   S  S  S  S  S  S S S  S  S  S  S  S  S  S  S
|-----------------------------------------------|
|-----------------------------------------------|
|-----------------------------------------------|
|-11-11-11-11-11-11-9-9-11-11-11-11-------------|
|-----------------------------------12-12-12-12-|
|-----------------------------------------------|
|
|  S  S  S  S  S  S S S  S  S  S  S  S  S  S  S
|-----------------------------------------------|
|-----------------------------------------------|
|-----------------------------------------------|
|-----------------------------------------------|
|-----------------------------------------------|
|--7--7--7--7--7--7-7-7--7--7--7--7--7--7--7--7-|


   S  S  S  S  S  S  S  S S S S S  S  S  S  S
|---------------------------------------------|
|---------------------------------------------|
|---------------------------------------------|
|-------------11-11-11-11-9-9-9-9-------------|
|-12-12-12-12---------------------12-12-12-12-|
|---------------------------------------------|
|
|  S  S  S  S  S  S  S  S S S S S  S  S  S  S
|---------------------------------------------|
|---------------------------------------------|
|---------------------------------------------|
|---------------------------------------------|
|---------------------------------------------|
|--7--7--7--7--7--7--7--7-7-7-7-7--7--7--7--7-|


  S S S S S S  S  S  S  S  S  S  S  S  S  S
|-------------------------------------------|
|-------------------------------------------|
|-------------------------------------------|
|-9-9-9-9-9-9-------------------------------|
|-------------12-12-11-11-11-11-11-11-11-11-|
|-------------------------------------------|
|
| S S S S S S  S  S  S  S  S  S  S  S  S  S
|-------------------------------------------|
|-------------------------------------------|
|-------------------------------------------|
|-------------------------------------------|
|-4-4-4-4-4-4--4--4--4--4--4--4--4--4--4--4-|
|-------------------------------------------|


  S S S S S S  S  S  S  S  S  S S S S S
|---------------------------------------|
|---------------------------------------|
|---------------------------------------|
|-9-9-9-9-9-9-------------------9-9-9-9-|
|-------------12-12-11-11-11-11---------|
|---------------------------------------|
|
| S S S S S S  S  S  S  S  S  S S S S S
|---------------------------------------|
|---------------------------------------|
|---------------------------------------|
|---------------------------------------|
|-4-4-4-4-4-4--4--4--4--4--4--4-4-4-4-4-|
|---------------------------------------|


     S  S  S  S  S  S S S  S  S  S  S  S  S  S  S
||------------------------------------------------|
||o-----------------------------------------------|
||------------------------------------------------|
||--11-11-11-11-11-11-9-9-11-11-11-11-------------|
||o-----------------------------------12-12-12-12-|
||------------------------------------------------|
|
|    S  S  S  S  S  S S S  S  S  S  S  S  S  S  S
||------------------------------------------------|
||o-----------------------------------------------|
||------------------------------------------------|
||------------------------------------------------|
||o--5--5--5--5--5--5-5-5--5--5--5--5--5--5--5--5-|
||------------------------------------------------|


   S  S  S  S  S  S  S  S S S S S  S  S  S  S
|----------------------------------------------|
|----------------------------------------------|
|----------------------------------------------|
|-------------11-11-11-11-9-9-9-9--------------|
|-12-12-12-12---------------------12-12-12-12--|
|----------------------------------------------|
|
|  S  S  S  S  S  S  S  S S S S S  S  S  S  S
|----------------------------------------------|
|----------------------------------------------|
|----------------------------------------------|
|----------------------------------------------|
|--5--5--5--5--5--5--5--5-5-5-5-5--5--5--5--5--|
|----------------------------------------------|


   S  S  S  S  S  S  S  S  S  S  S  S  S  S  S  S
|-------------------------------------------------|
|-------------------------------------------------|
|-------------------------------------------------|
|-12-12-12-12-12-12-11-11-12-12-12-12-------------|
|-------------------------------------14-14-14-14-|
|-------------------------------------------------|
|
|  S  S  S  S  S  S  S  S  S  S  S  S  S  S  S  S
|-------------------------------------------------|
|-------------------------------------------------|
|-------------------------------------------------|
|-------------------------------------------------|
|-------------------------------------------------|
|--4--4--4--4--4--4--4--4--4--4--4--4--4--4--4--4-|


   S  S  S  S  S  S  S  S  S  S  S  S  S  S  S  S
|-------------------------------------------------|
|-------------------------------------------------|
|-------------------------------------------------|
|-------------12-12-12-12-11-11-11-11-------------|
|-14-14-14-14-------------------------14-14-14-14-|
|-------------------------------------------------|
|
|  S  S  S  S  S  S  S  S  S  S  S  S  S  S  S  S
|-------------------------------------------------|
|-------------------------------------------------|
|-------------------------------------------------|
|-------------------------------------------------|
|-------------------------------------------------|
|--4--4--4--4--4--4--4--4--4--4--4--4--4--4--4--4-|


   S  S  S  S  S  S S S  S  S  S  S  S  S  S  S
|-----------------------------------------------|
|-----------------------------------------------|
|-----------------------------------------------|
|-11-11-11-11-11-11-9-9-11-11-11-11-------------|
|-----------------------------------12-12-12-12-|
|-----------------------------------------------|
|
|  S  S  S  S  S  S S S  S  S  S  S  S  S  S  S
|-----------------------------------------------|
|-----------------------------------------------|
|-----------------------------------------------|
|-----------------------------------------------|
|--0--0--0--0--0--0-0-0--0--0--0--0--0--0--0--0-|
|-----------------------------------------------|


   S  S  S  S  S  S  S  S S S S S  S  S  S  S
|---------------------------------------------|
|---------------------------------------------|
|---------------------------------------------|
|-------------11-11-11-11-9-9-9-9-------------|
|-12-12-12-12---------------------12-12-12-12-|
|---------------------------------------------|
|
|  S  S  S  S  S  S  S  S S S S S  S  S  S  S
|---------------------------------------------|
|---------------------------------------------|
|---------------------------------------------|
|---------------------------------------------|
|--0--0--0--0--0--0--0--0-0-0-0-0--0--0--0--0-|
|---------------------------------------------|


  S S S S S S  S  S  S  S  S  S  S  S  S  S
|-------------------------------------------|
|-------------------------------------------|
|-------------------------------------------|
|-9-9-9-9-9-9-------------------------------|
|-------------12-12-11-11-11-11-11-11-11-11-|
|-------------------------------------------|
|
| S S S S S S  S  S  S  S  S  S  S  S  S  S
|-------------------------------------------|
|-------------------------------------------|
|-------------------------------------------|
|-------------------------------------------|
|-4-4-4-4-4-4--4--4--4--4--4--4--4--4--4--4-|
|-------------------------------------------|


  1.
  S S S S S S  S  S  S  S  S  S S S S S
|----------------------------------------||
|---------------------------------------o||
|----------------------------------------||
|-9-9-9-9-9-9-------------------9-9-9-9--||
|-------------12-12-11-11-11-11---------o||
|----------------------------------------||
|
| S S S S S S  S  S  S  S  S  S S S S S
|----------------------------------------||
|---------------------------------------o||
|----------------------------------------||
|----------------------------------------||
|-4-4-4-4-4-4--4--4--4--4--4--4-4-4-4-4-o||
|----------------------------------------||


  2.
  S S S S S S  S  S  S  S  S  S S S S S
|---------------------------------------||-|
|---------------------------------------||-|
|---------------------------------------||-|
|-9-9-9-9-9-9-------------------9-9-9-9-||-|
|-------------12-12-11-11-11-11---------||-|
|---------------------------------------||-|
|
| S S S S S S  S  S  S  S  S  S S S S S
|---------------------------------------||-|
|---------------------------------------||-|
|---------------------------------------||-|
|---------------------------------------||-|
|-4-4-4-4-4-4--4--4--7--7--7--7-7-7-7-7-||-|
|---------------------------------------||-|


 Solo
  Gtr III
   E  E  E  E  H          +Q        E  Q.      E  E
|----------------------|----------------------------|
|----------------------|-----------17---------------|
|-------14-16-17b18----|-(17)pb18-----17b18r==16-14-|
|-14-16----------------|----------------------------|
|----------------------|----------------------------|
|----------------------|----------------------------|
|
| Gtrs I, II
|  W                      +W
|----------------------|----------------------------|
|----------------------|----------------------------|
|----------------------|----------------------------|
|----------------------|----------------------------|
|--0-------------------|--(0)-----------------------|
|--0-------------------|--(0)-----------------------|


   E.  E.  E  a  Q   +Q      +W
|-------------------------|---------|
|-------------------------|---------|
|-13--14--16--------------|---------|
|------------14h16--(16)--|-(16)----|
|-------------------------|---------|
|-------------------------|---------|
|
|  W                         +W
|-------------------------|---------|
|-------------------------|---------|
|-------------------------|---------|
|-------------------------|---------|
|--4----------------------|--(4)----|
|--4----------------------|--(4)----|


    Q   Q   Q   a  Q     +Q    Q   Q   Q
|---------------------|-------------------|
|-/15--14--17---------|-------------------|
|--------------14h16--|-(16)--14--13--14--|
|---------------------|-------------------|
|---------------------|-------------------|
|---------------------|-------------------|
|
|   W                    +W
|---------------------|-------------------|
|---------------------|-------------------|
|---------------------|-------------------|
|---------------------|-------------------|
|---0-----------------|--(0)--------------|
|---0-----------------|--(0)--------------|


   E  E  E  E  E  E  E  E    E   E  E  E  E  E  E  E
|-------------------------|---------------------------|
|-------------------------|---------------------------|
|-13h14p13h14p13h14p13h14p|=13h=14p13h14p13h14p13h14--|
|-------------------------|---------------------------|
|-------------------------|---------------------------|
|-------------------------|---------------------------|
|
|  W                        +W
|-------------------------|---------------------------|
|-------------------------|---------------------------|
|-------------------------|---------------------------|
|-------------------------|---------------------------|
|--4----------------------|-(4)-----------------------|
|--4----------------------|-(4)-----------------------|


                 ~~~~~~~~~~                            ~~~~~~~~~~
    Q   Q   Q    Q     +Q    Q   Q   Q     Q   Q   Q   Q     +W
|-/17----------/19--|-(19)----------14--|-22--21--22--21--|-(21)----|
|------15--14-------|-------15--14------|-----------------|---------|
|-------------------|-------------------|-----------------|---------|
|-------------------|-------------------|-----------------|---------|
|-------------------|-------------------|-----------------|---------|
|-------------------|-------------------|-----------------|---------|
|
|   W                  +W                  W                 +W
|-------------------|-------------------|-----------------|---------|
|-------------------|-------------------|-----------------|---------|
|-------------------|-------------------|-----------------|---------|
|-------------------|-------------------|-----------------|---------|
|---0---------------|--(0)--------------|--4--------------|--(4)----|
|---0---------------|--(0)--------------|--4--------------|--(4)----|


    E  E  E  E  E  E  E  E    E   E  E  E  E  E  E  E
|-/17-16-14-16-14-12-14-12-|-----12-------------------|
|--------------------------|-15-----15-14-15-14-12-15-|
|--------------------------|--------------------------|
|--------------------------|--------------------------|
|--------------------------|--------------------------|
|--------------------------|--------------------------|
|
|   W                        +W
|--------------------------|--------------------------|
|--------------------------|--------------------------|
|--------------------------|--------------------------|
|--------------------------|--------------------------|
|---0----------------------|-(0)----------------------|
|---0----------------------|-(0)----------------------|


      ~~
   a  W           H     H
|--------------|-------------|
|-12h14--------|-15----17----|
|--------------|-------------|
|--------------|-------------|
|--------------|-------------|
|--------------|-------------|
|
|     W           H     H
|--------------|-------------|
|--------------|-------------|
|--------------|-------------|
|--------------|-------------|
|-----4--------|--5-----7----|
|-----4--------|--5-----7----|


 Outro
   \3________________________________
   W                 +W
|-14--------------|-(14)------------|
|-----------------|-----------------|
|-----------------|-----------------|
|-----------------|-----------------|
|-----------------|-----------------|
|-----------------|-----------------|
|
|  E   E E E H        E  E E E H
|-----------------|-----------------|
|-----------------|-----------------|
|-----------------|-----------------|
|-----------------|-----------------|
|--4---4-7-4-5----|---4--4-7-4-0----|
|--4---4-7-4-5----|---4--4-7-4-0----|


  Gtrs I, II
                         PM-|
  E E E E H      E E E E Q  Q
|--------------|----------------|
|--------------|----------------|
|--------------|----------------|
|--------------|----------------|
|-4-4-7-4-5----|-4-4-7-4-0--0---|
|-4-4-7-4-5----|-4-4-7-4-0--0---|


                                                             PM----|
    E E E E Q  Q     E E E E H      E E E E Q  Q     E E E E E E E E
||-----------------|--------------|----------------|-------------------||
||o----------------|--------------|----------------|------------------o||
||-----------------|--------------|----------------|-------------------||
||-----------------|--------------|----------------|-------------------||
||o-4-4-7-4-5------|-4-4-7-4-0----|-4-4-7-4-5------|-4-4-7-4-0-0-0-0--o||
||--4-4-7-4-5--9\--|-4-4-7-4-0----|-4-4-7-4-5--9\--|-4-4-7-4-0-0-0-0---||


                                                           PM-|
  E E E E Q  Q     E E E E H      E E E E Q  Q     E E E E Q  Q
|----------------|--------------|----------------|---------------*|
|----------------|--------------|----------------|---------------*|
|----------------|--------------|----------------|---------------*|
|----------------|--------------|----------------|---------------*|
|-4-4-7-4-5------|-4-4-7-4-0----|-4-4-7-4-5------|-4-4-7-4-0--0--*|
|-4-4-7-4-5--9\--|-4-4-7-4-0----|-4-4-7-4-5--9\--|-4-4-7-4-0--0--*|


Duration Legend
---------------
W - whole; H - half; Q - quarter; E - 8th; S - 16th; T - 32nd; X - 64th; a - acciaccatura
+ - note tied to previous; . - note dotted; .. - note double dotted
Uncapitalized letters represent notes that are staccato (1/2 duration)
Irregular groupings are notated above the duration line
Duration letters will always appear directly above the note/fret number it represents the
duration for.  Duration letters with no fret number below them represent rests.  Multi-
bar rests are notated in the form Wxn, where n is the number of bars to rest for.  Low
melody durations appear below the staff

Tablature Legend
----------------
 h   - hammer-on
 p   - pull-off
 b   - bend
 pb  - pre-bend
 r   - bend release (if no number after the r, then release immediately)
 /\  - slide into or out of (from/to "nowhere")
 s   - legato slide
 S   - shift slide
  - natural harmonic
[n]  - artificial harmonic
n(n) - tapped harmonic
 ~   - vibrato
 tr  - trill
 T   - tap
 TP  - trem. picking
 PM  - palm muting
\n/  - tremolo bar dip; n = amount to dip
 \n  - tremolo bar down
 n/  - tremolo bar up
/n\  - tremolo bar inverted dip
 =   - hold bend; also acts as connecting device for hammers/pulls
 <>  - volume swell (louder/softer)
 x   - on rhythm slash represents muted slash
 o   - on rhythm slash represents single note slash

Misc Legend
-----------
 |  - bar
||  - double bar
||o - repeat start
o|| - repeat end
*|  - double bar (ending)
 :  - bar (freetime)
 $  - Segno
 &  - Coda
Tempo markers -  = BPM(8/16=s8/s16), where s8 = swing 8ths, s16 = swing 16ths


***************************************************************************************
* Generated using Power Tab Editor by Brad Larsen - http://powertab.guitarnetwork.org *
***************************************************************************************
comments
print report bad tab
5 comments total. Showing first comments.
-2 reply
DkAAmetalhead wrote on May 5 2009, 11:07 pm

This tab sucks. There are already tabs that are right for this song so why keep posting sucky tabs?

+1 reply
GuitarHero_jp wrote on May 8 2009, 01:15 pm

Wtf? This is all right how does it suck?

0 reply
xKnifekillerx wrote on March 5 2010, 08:09 am

Yeah, its all right. apart from the interlude! it sounds right when you aint playing it along with the music. but when you jam with it, it sounds like your playing it lower then they do.

I want to post or [tab]
guest
You may want to rate the tab now too:
select rating
Please do not post tabs as comments. Select "correction" instead!