Oops, an error
Loading. Please wait.

Guardians Of Asgaard Tab

version 2
version 2

Whole song

Interactive

69,643 views 87 this week
11 commentsread comments
1 2 3 4 5
x 22
add to favorites
launch autoscroll
font size
0
reset
how to read this tab
guitar tuner
Autoscroll
slow
fast
+/-
esc
set tempo
stop
Help us to improve Ultimate-Guitar.com Take our survey!
×
Tuning
A# F A# D# G C
Artist: Amon Amarth
Song: Guardians of asgaard
Drop A tuning
A E A G D B

[Riff A]
[Intro] x3 
(both guitars)                       End
e|---------------------------------|---------------------------------|
B|---------------------------------|---------------------------------|
G|---------------------------------|---------------------------------|
D|-4-4-7-4-5------4-4-7-4-0--------|-4-4-7-4-5------4-4-7-4-0---0----|
A|-4-4-7-4-5------4-4-7-4-0--------|-4-4-7-4-5------4-4-7-4-0---0----|
E|-4-4-7-4-5------4-4-7-4-0--------|-4-4-7-4-5------4-4-7-4-0---0----|
                                                            .   .
[Riff B] 
(Verse) (both guitars)
(this is a bit of a stretch, you could change the string but this 9 sounds good)
standing firm against all odds...   Guarding the most sacred home...
e|---------------------------------|--------------------------------------|
B|---------------------------------|--------------------------------------|
G|---------------------------------|--------------------------------------|
D|---------------------------------|--------------------------------------|
A|-9-----7-4---4---5-----7-4---4---|-5-----5-4---4---2-----2-4---4--------|
E|---4-4-----4---4---4-4-----4---4-|---0-0-----0---0---0-0-----0---0------|

[Riff C]
[Verse 2] (this section x3)
[Guitar 1]
 The evil giants of the south...       Are constantly on the attack...
e|----------------------------------|--------------------------------------|
B|----------------------------------|--------------------------------------|
G|-6-----4-6---------4-6-------4----|-7-----6-7---4-----6-7---6---4--------|
D|-------------7-----------7--------|--------------------------------------|
A|----------------------------------|--------------------------------------|
E|---4-4-----4---4-4-----4---4---4--|---0-0-----0---0-0-----0---0---0------|

[Guitar 2]
(this could just be doing what guitar I is doing but I don't think it is)
e|----------------------------------|--------------------------------------|
B|----------------------------------|--------------------------------------|
G|----------------------------------|--------------------------------------|
D|----------------------------------|--------------------------------------|
A|----------------------------------|--------------------------------------|
E|-4-4-4-4-4-4-4-4-4-4-4-4-4-4-4-4--|-0-0-0-0-0-0-0-0-0-0-0-0-0-0-0-0------|

[Riff C]
[Verse 2 end] (this section x1)
[Guitar 1]
 Marching down the (x) path...        We are...
e|----------------------------------|--------------------------------------|
B|----------------------------------|--------------------------------------|
G|-6-----4-6---------4-6-------4----|-6-----4-6---------4-6----------------|
D|-------------7-----------7--------|-------------6-----------6---7--------|
A|---0-0-----0---0-0-----0---0---0--|---4-4-----4---4-4-----4---4---4------|
E|----------------------------------|--------------------------------------|

[Guitar 2]
(this could just be doing what guitar I is doing but I don't think it is)
e|----------------------------------|--------------------------------------|
B|----------------------------------|--------------------------------------|
G|----------------------------------|--------------------------------------|
D|----------------------------------|--------------------------------------|
A|-0-0-0-0-0-0-0-0-0-0-0-0-0-0-0-0--|-4-4-4-4-4-4-4-4-4-4-4-4-4-4-4-4------|
E|----------------------------------|--------------------------------------|

[Riff D]
(pre-chorus - modified shorter Riff A)
(both guitars)
 "Cuz we are        We're the Guardians....
e|---------------------------------|---------------------------------|
B|---------------------------------|---------------------------------|
G|---------------------------------|---------------------------------|
D|-4-4-7-4-5------4-4-7-4-0--------|-4-4-7-4-5------4-4-7-4-0---0----|
A|-4-4-7-4-5------4-4-7-4-0--------|-4-4-7-4-5------4-4-7-4-0---0----|
E|-4-4-7-4-5------4-4-7-4-0--------|-4-4-7-4-5------4-4-7-4-0---0----|

[Riff E]
(Chorus)
(both guitars)
"Guardians of Asgaard"     1, 3              2, 4
e|-----------------|--------------------|--------------------|
B|-----------------|--------------------|--------------------|
G|-----------------|--------------------|--------------------|
D|-4-4-7-4-5-/-9---|---4-4-7-4-0--------|---4-4-7-4-0-0-0-0--|
A|-4-4-7-4-5-/-9---|---4-4-7-4-0--------|---4-4-7-4-0-0-0-0--|
E|-4-4-7-4-5-/-9---|---4-4-7-4-0--------|---4-4-7-4-0-0-0-0--|

[Riff B] x4
[Riff C] x1
[Riff C] End x1
[Riff D] x1
[Riff E] x4

[Solo Lead section]
(These are all tremolo picked to save time. So play them along for timing)
[Guitar 1] x3
e|----------------------------------------------|
B|----------------------------------------------|
G|-6----4-6-------6-4-6-----7---6-7--4---7-6-4--|
D|-----------7----------7-----------------------|
A|----------------------------------------------|
E|----------------------------------------------|

[Guitar 1]
e|----------------------------------------------|
B|----------------------------------------------|
G|-6----4-6-----6-4----4---------4-------4------|
D|-----------7-------7----7-6------7-6----------|
A|----------------------------------------------|
E|----------------------------------------------|

[Guitar 2]
(this changes quite a bit, its easier to listen. These are tremolo picked behind the 
 it spans the entirety of the lead so listen and you'll get it)
e|-------------------------------------------------------|
B|-------------------------------------------------------|
G|-------------------------------------------------------|
D|------------------------------------4---5--------------|
A|--------------4---5----------4---5----------4----7-----|
E|--4---0---7----------4---7-----------------------------|

[Solo Rhythm]
(Guitar 2)
 1, 3, 5, 7    2, 4, 6, 8   End
e|-----------|-----------|-----------------------|
B|-----------|-----------|-----------------------|
G|-----------|-----------|-----------------------|
D|-----0-----|-----4-----|--0-----4-----5-----7--|
A|-----0-----|-----4-----|--0-----4-----5-----7--|
E|-----0-----|-----4-----|--0-----4-----5-----7--|

(Riff D x 1)
(Riff E x 4)


************************************

| /  Slide up

************************************
Suggest correction
comments
print report bad tab
11 comments total. Showing first comments.
-1 reply
GuitarHero_jp 2,118 Feb 24, 2009 10:38 AM

wtf? 9 to 4? Its easier to do it 4 on the string bellow. The rest is good though, 4*

+2 reply
Darkling83 123 Feb 27, 2009 04:21 PM

tuning correction - A E A D F# B - that was my fault

As a response to the other poster above me yes, 4 on the 3rd A and 9 on the 2nd E are the same note. While the note is the same the tone is a bit thicker on the 9 than the 4 and is why I tabbed it that way. I added a comment next to that riff depicting I thought, but not clearly enough it would seem.

0 reply
Darkling83 123 Mar 06, 2009 06:53 PM

additional correction, during the tremolo part. (the first half)

|----------------------------------------------|
|----------------------------------------------|
|-6----4-6-------6-4-------7---6-7--4---7-6-4--|
|-----------7----------7-----------------------|
|----------------------------------------------|
|----------------------------------------------|

guest
You may want to rate the tab now too:
select rating
Wanna post a correction for this tab? Suggest correction