Oops, an error
Loading. Please wait.

Guardians Of Asgaard Tab

version 3
version 3

Whole song

Interactive

21,010 views 21 this week
3 commentsread comments
1 2 3 4 5
accurate
x 4
add to favorites
launch autoscroll
font size
0
reset
how to read this tab
guitar tuner
Tab Pro tools
  • play this tab
  • loop segment
  • change instrument
  • show fretboard
  • metronome
×
Best way to learn
"Guardians Of Asgaard"
Autoscroll
slow
fast
+/-
esc
set tempo
stop
. = Palm Mute
TP = tremolo pick
^ = bend

Riff A

Intro: x3 (both guitars)            End
|---------------------------------||---------------------------------|
|---------------------------------||---------------------------------|
|---------------------------------||---------------------------------|
|-4-4-7-4-5------4-4-7-4-0--------||-4-4-7-4-5------4-4-7-4-0---0----|
|-4-4-7-4-5------4-4-7-4-0--------||-4-4-7-4-5------4-4-7-4-0---0----|
|-4-4-7-4-5------4-4-7-4-0--------||-4-4-7-4-5------4-4-7-4-0---0----|
                                                            .   .

Riff B (Verse) (both guitars)
standing firm against all odds...   Guarding the most sacred home...
|---------------------------------||--------------------------------------|
|---------------------------------||--------------------------------------|
|---------------------------------||--------------------------------------|
|---------------------------------||--------------------------------------|
|-5--3------ 3--------------------||-5--3------ 3-------------------------|
|-----5-5--6--5-5-6-6-5-5—3-3-5-5-||-----5-5--6--5-5-6-6-5-5—3-3-5-5------|


Riff C Verse 2 (this section x3)
Guitar I
The evil giants of the south...       Are constantly on the attack...
|----------------------------------||--------------------------------------|
|----------------------------------||--------------------------------------|
|----------------------------------||--------------------------------------|
|-7-----5-7---------5-7-------5----||-8-----7-8---5-----7-8---7---5--------|
|-------------8-----------8--------||--------------------------------------|
|----------------------------------||--------------------------------------|


Guitar II
|----------------------------------||--------------------------------------|
|----------------------------------||--------------------------------------|
|----------------------------------||--------------------------------------|
|----------------------------------||--------------------------------------|
|----------------------------------||--------------------------------------|
|-4-4-4-4-4-4-4-4-4-4-4-4-4-4-4-4--||-0-0-0-0-0-0-0-0-0-0-0-0-0-0-0-0------|
  . . . . . . . . . . . . . . . .         . . . . . . . . . . . . . . . .

Riff C Verse 2 end (this section x1)

Guitar I
Marching down the (x) path...        We are...
|----------------------------------||--------------------------------------|
|----------------------------------||--------------------------------------|
|----------------------------------||--------------------------------------|
|-7-----5-7---------5-7-------5----||-7-----5-7---------5-7----------------|
|-------------8-----------8--------||-------------7-----------7---8--------|
|----------------------------------||--------------------------------------|
    . .     .   . .     .   .   .       . .     .   . .     .   .   .

Guitar II
|----------------------------------||--------------------------------------|
|----------------------------------||--------------------------------------|
|----------------------------------||--------------------------------------|
|----------------------------------||--------------------------------------|
|-0-0-0-0-0-0-0-0-0-0-0-0-0-0-0-0--||-4-4-4-4-4-4-4-4-4-4-4-4-4-4-4-4------|
|----------------------------------||--------------------------------------|
  . . . . . . . . . . . . . . . .     . . . . . . . . . . . . . . . .


Riff D (pre chorus - modified shorter Riff A)
(both guitars)
"Cuz we are        We're the Guardians....
|---------------------------------||---------------------------------|
|---------------------------------||---------------------------------|
|---------------------------------||---------------------------------|
|-4-4-7-4-5------4-4-7-4-0--------||-4-4-7-4-5------4-4-7-4-0---0----|
|-4-4-7-4-5------4-4-7-4-0--------||-4-4-7-4-5------4-4-7-4-0---0----|
|-4-4-7-4-5------4-4-7-4-0--------||-4-4-7-4-5------4-4-7-4-0---0----|
                                                            .   .

Riff E (Chorus)
(both guitars)
"Guardians of Asgaard"     1, 3              2, 4
|-----------------||--------------------|   |--------------------|
|-----------------||--------------------|   |--------------------|
|-----------------||--------------------|   |--------------------|
|-4-4-7-4-5-/-9---||---4-4-7-4-0--------|x2 |---4-4-7-4-0-0-0-0--|
|-4-4-7-4-5-/-9---||---4-4-7-4-0--------|   |---4-4-7-4-0-0-0-0--|
|-4-4-7-4-5-/-9---||---4-4-7-4-0--------|   |---4-4-7-4-0-0-0-0--|
                                                     . . . .
Do this riff twice then do the ending part then come back and do the riff 4 times before 
go to the ending again

Riff B x 4
Riff C x 1
Riff C End x 1
Riff D x 1
Riff E x 4

 (tremolo picked play them along for timing)
Guitar I x3
|----------------------------------------------|
|----------------------------------------------|
|----------------------------------------------|
|-7----5-7-------7-5-7-----8---7-8--5---8-7-5--|
|-----------8----------------------------------|
|----------------------------------------------|


Guitar I
|----------------------------------------------||
|----------------------------------------------||
|----------------------------------------------||
|-7----5-7-----7-5----5---------5--------------||
|-----------8-------8----8-7------8-7---8------||

Solo

|----------------------------------||--------------------------------------|
|----------------12p9--------------||--------------------------------------|
|------9h11-11^-------11-9-8-9-11--||-------14-13-16-----------------------|
|-9h11-----------------------------||-9h11-----------14h16—-14-13-14-------|
|----------------------------------||--------------------------------------|
|----------------------------------||-------------==-----------------------|


|----------------------14----------||-17-16-17-16--------------------------|
|-------------17----------------14-||--------------------------------------|
|----------------14-13----14-13----||-------------17-16-14-16-14-12-14-12--|
|-13h14p13 x8----------------------||--------------------------------------|
|----------------------------------||--------------------------------------|
|----------------------------------||--------------------------------------|


|----------------------------------------------||
|----------------------------------------------||
|-10-12-10-9-10-9-7-10-9---/10-/12-/14^--------||
|----------------------------------------------||
|----------------------------------------------||
|----------------------------------------------||


Solo Rhythm
Guitar II
1, 3, 5, 7    2, 4, 6, 8   End
|-----------||-----------||-----------------------|
|-----------||-----------||-----------------------|
|-----------||-----------||-----------------------|
|-----0-----||-----4-----||--0-----4-----5-----7--|
|-----0-----||-----4-----||--0-----4-----5-----7--|
|-----0-----||-----4-----||--0-----4-----5-----7--|

Riff D x 1
Riff E x 4
comments
print report bad tab
3 comments total.
0 reply
Soulburner wrote on March 26 2009, 04:32 pm

Parts are wrong and there's already a perfectly correct tab for it.

0 reply
Darkling83 wrote on April 14 2009, 06:06 pm

this looks like a revised version of mine (Rev 2) and some of the changes are.. interesting

-2 reply
DkAAmetalhead wrote on May 5 2009, 11:04 pm

This tab sucks. The solo is way off, I saw them play it in Atlanta and they play it exactly the way it is tabbed out by me.

I want to post or [tab]
guest
You may want to rate the tab now too:
select rating
Please do not post tabs as comments. Select "correction" instead!