Oops, an error
Loading. Please wait.

Live For The Kill Tab

version 2
version 2

Whole song

Interactive

1,369 views 1 this week
no commentswrite comment
1 2 3 4 5
please rate
add to favorites
launch autoscroll
font size
0
reset
how to read this tab
guitar tuner
Autoscroll
slow
fast
+/-
esc
set tempo
stop
Help us to improve Ultimate-Guitar.com Take our survey!
×
Author
Difficulty
intermediate
Live for the Kill
By; Amon Amarth
As heard on; Twilight of the Thunder God
Tabbed by; Chris Powalie
Tuning;Standard E

If you have any tab suggestions, contact me at; chris_powalie@Yahoo.com

Intro Riff
E|-------------------------------------|
B|-------------------------------------|
G|-------------------------------------|X's 4
D|-7/9-7/9-7/9--710---7/9-7/9-7/9-5-77-|
A|-5/7-5/7-5/7--5-8---5/7-5/7-5/7-3-55-|
E|-------------------------------------|

Verse 1
PM all 0's
E|---------------------------------|      }
B|---------------------------------|      |
G|---------------------------------|      |
D|-50040050070050404h50000---------|      |
A|------------------------55555555-|      |
E|------------------------33333333-|      |
					  |X's 2
E|--------------------------------------| |
B|--------------------------------------| |
G|-----------------------------22220000-| |
D|-50040050070050404h555555p4p0---------| |
A|--------------------------------------| |
E|--------------------------------------| }

Bridge; Alternate pick as needed
E|--------------------------------------|
B|--------------------------------------|
G|---------------------7-5-4--7-5-4-5-7-|X's 3
D|-5-4-----5-4---7-5-4------------------|
A|-----5-7-----5------------------------|
E|--------------------------------------|

Intro Riff
E|-------------------------------------|
B|-------------------------------------|
G|-------------------------------------|X's 2
D|-7/9-7/9-7/9--710---7/9-7/9-7/9-5-77-|
A|-5/7-5/7-5/7--5-8---5/7-5/7-5/7-3-55-|
E|-------------------------------------|

Verse 2
PM all 0's
E|---------------------------------|      }
B|---------------------------------|      |
G|---------------------------------|      |
D|-50040050070050404h50000---------|      |
A|------------------------55555555-|      |
E|------------------------33333333-|      |
					  |X's 3
E|--------------------------------------| |
B|--------------------------------------| |
G|-----------------------------22220000-| |
D|-50040050070050404h555555p4p0---------| |
A|--------------------------------------| |
E|--------------------------------------| }

Pre-solo
E|------------------------------|
B|------------------------------|
G|------------------------------|X's 2
D|------------------------------|
A|-9-7-5-4-5-7------------------|
E|-7-5-3-2-3-5-0000000000000000-|
	      [-------PM-------]

E|--------------------------|
B|--------------------------|
G|--------------------------|
D|--------------------------|
A|-9-7-5-4-5-7--9-7-5-4-5-7-|
E|-7-5-3-2-3-5--7-5-3-2-3-5-|

E|-------------------------------|
B|-------------------------------|
G|-4-5-4-2-0-2--4-5-7-5-4-5-4tr5-|
D|-------------------------------|
A|-------------------------------|
E|-------------------------------|

Intro Riff
E|-------------------------------------|
B|-------------------------------------|
G|-------------------------------------|
D|-7/9-7/9-7/9--710---7/9-7/9-7/9-5-77-|
A|-5/7-5/7-5/7--5-8---5/7-5/7-5/7-3-55-|
E|-------------------------------------|

Solo; Sorry if it's a bit off
	      *Harm*
E|--------------------------------|
B|--------------------------------|
G|-------0-2-4-*5*--4-2-0---------|
D|---0-2------------------2-4-5-4~|
A|-9\-----------------------------|
E|--------------------------------|

 [Sweep]
E|----------------------------------10-|
B|--------------------------------7----|
G|----7-5p4--4-5-7-0t2-2p0-------------|
D|---5-----5--------------2-4-5-4------|
A|--5----------------------------------|
E|-5-----------------------------------|

     X's4       X's4        X's4
E|-10p8p7---|-12p10p8---|-14p12p10---|
B|-------10-|--------12-|---------14-|
G|----------|-----------|------------|
D|----------|-----------|------------|
A|----------|-----------|------------|
E|----------|-----------|------------|

E|-10-8-7-8-10-3h5--15p14p12--15p14--14(15)-13(14)-12-|
B|--------------------------15-----15-----------------|
G|----------------------------------------------------|
D|----------------------------------------------------|
A|----------------------------------------------------|
E|----------------------------------------------------|

Violin part
E|----------------------------------------|
B|----------------------------------------|
G|---------------------7-5-4-4--7-5-4-4-2-|
D|-5-4-----5-4---7-5-4--------------------|
A|-----5-7-----5--------------------------|
E|----------------------------------------|

E|----------------------------------------|
B|----------------------------------------|
G|---------------------7-5-4-4--7-5-4-5-7-|
D|-5-4-----5-4---7-5-4--------------------|
A|-----5-7-----5--------------------------|
E|----------------------------------------|

E|----------------------10-8-7-7--10-8-7-8-10-|
B|-8-7-----8-7---10-8-7-----------------------|
G|-----7-9-----7------------------------------|
D|--------------------------------------------|
A|--------------------------------------------|
E|--------------------------------------------|

E|----------------------------------------|
B|----------------------------------------|
G|---------------------7-5-4-4--7-5-4-5-7-|
D|-5-4-----5-4---7-5-4--------------------|
A|-----5-7-----5--------------------------|
E|----------------------------------------|

Bridge; Alternate pick as needed
E|--------------------------------------|
B|--------------------------------------|
G|---------------------7-5-4--7-5-4-5-7-|X's 2
D|-5-4-----5-4---7-5-4------------------|
A|-----5-7-----5------------------------|
E|--------------------------------------|

Outro
E|-----------------------------|
B|-----------------------------|
G|-----------------------------|
D|-7/9-7/9-7/9--710---7/9-7/9\-|
A|-5/7-5/7-5/7--5-8---5/7-5/7\-|
E|-----------------------------|
Suggest correction
Give kudos to tab author, rate the tab!
1 2 3 4 5
comments
print report bad tab
guest
You may want to rate the tab now too:
select rating
Please do not post tabs as comments. Select "correction" instead!