Oops, an error
Loading. Please wait.

No Fear For The Setting Sun Tab

version 1
version 1

Intro

Whole song

Interactive

3,125 views 6 this week
no commentswrite comment
1 2 3 4 5
not so good
x 1
add to favorites
launch autoscroll
font size
0
reset
how to read this tab
guitar tuner
Tab Pro tools
  • play this tab
  • loop segment
  • change instrument
  • show fretboard
  • metronome
Autoscroll
slow
fast
+/-
esc
set tempo
stop
Difficulty
Tuning
intermediate
A E A D F# B
TP - Tremolo Picking

Drop A

Intro & Verse

2x
|------------------------------------------------------------------------------------------------|
|------------------------------------------------------------------------------------------------|
|------------------------------------------------------------------------------------------------|
|------------------------7-----------------------------------------------------------------------|
|------8-----7-----------------10------7-----8p-5--------8-----7-----------2s-3--3s-5--5s-2--2s-3|
|0--0-----0-----0--0--0-----0-------0-----0--------0--0-----0-----0--0--0--2s-3--3s-5--5s-2--2s-3|
  
2x
|-------------------------------------------------------------------------------------------------|
|-------------------------------------------------------------------------------------------------|
|-------------------------------------------------------------------------------------------------|
|------7------------------------------------------------------------------------------------------|
|------------10-----------7-----8--------8------8h-10---------------------------------------------|
|8--8-----8------8--8--8-----8-----8--8------8---------8--8--8--8--8--8--8--8--8--8--8--8--5--5--5|

Chorus

    TP TP TP TP TP TP TP TP TP TP TP TP TP TP TP TP TP TP TP TP TP TP TP TP
||--------------------------------------------------------------------------||
||o------------------------------------------------------------------------o||
||--------------------7--5--7----------------------------7--5--7--9---------||
||--7-----------7--5-----------7--5--8--7----------7--5--------------7--5---||
||o----8--5--8----------------------------8--5--8--------------------------o||
||--------------------------------------------------------------------------||
comments
We did not receive enough feedback on this tab! Please rate:
print report bad tab
1 2 3 4 5
I want to post or [tab]
guest
You may want to rate the tab now too:
select rating
Please do not post tabs as comments. Select "correction" instead!