Oops, an error
Loading. Please wait.

Prediction Of Warfare Tab

version 2
version 2

Whole song

Interactive

6,746 views 12 this week
4 commentsread comments
1 2 3 4 5
excellent!
x 4
add to favorites
launch autoscroll
font size
0
reset
how to read this tab
guitar tuner
Tab Pro tools
  • play this tab
  • loop segment
  • change instrument
  • show fretboard
  • metronome
Autoscroll
slow
fast
+/-
esc
set tempo
stop
Contributor
Difficulty
intermediate
Song: Prediction of Warfare
Artist: Amon Amarth
Album: With Oden on Our Side
Tuning (low to high): B F# B E G# C#
Tab By: Tiller (Ti1ler@yahoo.com)

The non-GuitarPro tab looked kind of confusing and not very organized so i
sat down and listened and tabbed this out in an easier to read style..ENJOY!


//- After note means speed picking
. - Palm Mute
* - See Note (THEY ARE AT THE BOTTOM)




Intro(0:00-0:57) -Guitar 1
C#-----------------------------------------------------------------------|
G#-----------------------------------------------------------------------|
E -7-77777-77776-6666----------------------------------------------------|
B --------------------7-77779-99999-99997-7777------------------------7--|
F#--------------------------------------------7-77779-99999-99997-7777---|
B –----------------------------------------------------------------------|

C#-----------------------------------------------------------------------|
G#-----------------------------------------------------------------------|
E -----------------------------------------------------------------------|
B -7777------------------------------------------------------------------|
F#-----9-99999-99999-99999-9999------------------------------------------|
B –----------------------------------------------------------------------|


Intro -Guitar 2
C#-----------------------------------------------------------------------|
G#-----------------------------------------------------------------------|
E -----------------------------------------------------------------------|
B -7~~~~~~~~~~~~~~~~~~~~~~~~~~~~~~~~~~~~~~~~-----------------------------|
F#-5~~~~~~~~~~~~~~~~~~~~~~~~~~~~~~~~~~~~~~~~--2---4----------------------|
B –-------------------------------------------2---4----------------------|




Main Riff(0:57-1:26) -Both Guitars
C#-----------------------------------------------------------------------|
G#-----------------------------------------------------------------------|
E -----------------------------------------------------------------------|
B -----------------------------------------------------------------------|
F#-0-00000-00000-0000-9-7-2-4-44444-44444-4444-4-7-2---------------------|
B –0-00000-00000-0000-9-7-2-4-44444-44444-4444-4-7-2---------------------|
   . ..... ..... ....         ..... ..... ....


Chorus Riff 1(1:26-1:54) -Guitar 1 (see note 1)*1
C#-----------------------------------------------------------------------|
G#-----------------------------------------------------------------------|
E -----------------------------------------------------------------------|
B -12//-11//-7//-9//-7//-------------7//---------------------------------|
F#-----------------------7//-9//-7//-----9//-----------------------------|
B –----------------------------------------------------------------------|

Chorus Riff 1-Guitar 2
C#-----------------------------------------------------------------------|
G#-----------------------------------------------------------------------|
E -----------------------------------------------------------------------|
B -5~~~~~~~~~~~~~~~~~~~~-------------------------------------------------|
F#-3~~~~~~~~~~~~~~~~~~~~-2---4~~~~~~~~~~~~~~~----------------------------|
B –----------------------2---4~~~~~~~~~~~~~~~----------------------------|

Chorus Riff 2(1:54-2:23) -Guitar 1
C#-----------------------------------------------------------------------|
G#-----------------------------------------------------------------------|
E -----------------------------------------------------------------------|
B ------------------------9-11--11-11-9----9--9-9------------------------|
F#-9--9-9-11-12-11--11-11---------------12--------12-11------------------|
B –----------------------------------------------------------------------|

C#-----------------------------------------------------------------------|
G#-----------------------------------------------------------------------|
E -----------------------------------------------------------------------|
B ------------------------9-12--12-12-11-9-11--11-11-9-------------------|
F#-9--9-9-11-12-11--11-11------------------------------12----------------|
B –----------------------------------------------------------------------|

Chorus Riff 2 -Guitar 2
C#-----------------------------------------------------------------------|
G#-----------------------------------------------------------------------|
E -----------------------------------------------------------------------|
B -----------------------------------------------------------------------|
F#-4-------7----2----0-----------7---------------------------------------|
B –4-------7----2----0-----------7---------------------------------------|


Break(2:23-2:39) -Both Guitars
C#-----------------------------------------------------------------------|
G#-----------------------------------------------------------------------|
E -----------------------------------------------------------------------|
B -----------------------------------------------------------------------|
F#-----------------------------------------------------------------------|
B –4--4-4-6-7-4--4-4-6-7-4--4-4-6-7-4--4-4-6-7-4--4-4-6-7-4--------------|
   .  . . . . .  . . . . .  . . . . .  . . . . .  . . . . .
C#-----------------------------------------------------------------------|
G#-----------------------------------------------------------------------|
E -----------------------------------------------------------------------|
B -----------------------------------------------------------------------|
F#----------5--5-5-4-2-4--4-4-2-0----------------------------------------|
B –4-4-6-7---------------------------------------------------------------|
   . . . .

Break Alt.Ending (2:39-2:46) Guit. 1-High B string.  Gui. 2----------------|Low B string.
C#-------------------------------------------------------------------------|
G#-------------------------------------------------------------------------|
E -------------------------------------------------------------------------|
B -12--12-12-11-9-11--11-11-9-7-9--9-9-7-6-7--7-7-6-4-4--------------------|
F#-------------------------------------------------------------------------|
B –12--12-12-11-9-11--11-11-9-7-9--9-9-7-6-7--7-7-6-4-4--------------------|


Main Riff(2:46-3:16) -Both Guitars
C#-----------------------------------------------------------------------|
G#-----------------------------------------------------------------------|
E -----------------------------------------------------------------------|
B -----------------------------------------------------------------------|
F#-0-00000-00000-0000-9-7-2-4-44444-44444-4444-4-7-2---------------------|
B –0-00000-00000-0000-9-7-2-4-44444-44444-4444-4-7-2---------------------|
   . ..... ..... ....         ..... ..... ....


Break 2 Riff 1(3:16-4:48) -Guitar 1 (See note 2)*2
C#-----------------------------------------------------------------------|
G#-----------------------------------------------------------------------|
E -----------------------------------------------------------------------|
B -12--12-12-12-12-12--12-12-12-12-11--11-11-11-11-5--5-5-5-5-7----------|
F#-----------------------------------------------------------------------|
B –----------------------------------------------------------------------|

C#-----------------------------------------------------------------------|
G#-----------------------------------------------------------------------|
E -----------------------------------------------------------------------|
B -7-7-7-7-7--7-7-7-7-5--5-5-5-5-2--2-2-2-2-3--3-3-3-3-3--3-3-3-3-2------|
F#-----------------------------------------------------------------------|
B –----------------------------------------------------------------------|

C#-----------------------------------------------------------------------|
G#-----------------------------------------------------------------------|
E -----------------------------------------------------------------------|
B -2-2-2-2---------------------------------------------------------------|
F#---------3--3-3-3-3-5--------------------------------------------------|
B –----------------------------------------------------------------------|


Break 2 Riff 2
C#-----------------------------------------------------------------------|
G#-----------------------------------------------------------------------|
E -----------------------------------------------------------------------|
B -12--12-12-12-12-12--12-12-12-12-11--11-11-11-11-15--15-15-15-15-12----|
F#-----------------------------------------------------------------------|
B –----------------------------------------------------------------------|

C#-----------------------------------------------------------------------|
G#-----------------------------------------------------------------------|
E -----------------------------------------------------------------------|
B -12-12-12-12-12--12-12-12-12-11--11-11-11-11-7--7-7-7-7-8--8-8-8-8-8---|
F#-----------------------------------------------------------------------|
B –----------------------------------------------------------------------|

C#-----------------------------------------------------------------------|
G#-----------------------------------------------------------------------|
E -----------------------------------------------------------------------|
B -8-8-8-8-11--11-11-11-11-11--11-11-11-11-7-----------------------------|
F#-----------------------------------------------------------------------|
B –----------------------------------------------------------------------|


Main Riff(4:48-5:17) -Both Guitars
C#-----------------------------------------------------------------------|
G#-----------------------------------------------------------------------|
E -----------------------------------------------------------------------|
B -----------------------------------------------------------------------|
F#-0-00000-00000-0000-9-7-2-4-44444-44444-4444-4-7-2---------------------|
B –0-00000-00000-0000-9-7-2-4-44444-44444-4444-4-7-2---------------------|
   . ..... ..... ....         ..... ..... ....



Chorus Riff 2(5:17-5:45) -Guitar 1
C#-----------------------------------------------------------------------|
G#-----------------------------------------------------------------------|
E -----------------------------------------------------------------------|
B ------------------------9-11--11-11-9----9--9-9------------------------|
F#-9--9-9-11-12-11--11-11---------------12--------12-11------------------|
B –----------------------------------------------------------------------|

C#-----------------------------------------------------------------------|
G#-----------------------------------------------------------------------|
E -----------------------------------------------------------------------|
B ------------------------9-12--12-12-11-9-11--11-11-9-------------------|
F#-9--9-9-11-12-11--11-11------------------------------12----------------|
B –----------------------------------------------------------------------|

Chorus Riff 2 -Guitar 2
C#-----------------------------------------------------------------------|
G#-----------------------------------------------------------------------|
E -----------------------------------------------------------------------|
B -----------------------------------------------------------------------|
F#-4-------7----2----0-----------7---------------------------------------|
B –4-------7----2----0-----------7---------------------------------------|



Main Riff(5:45-6:14) -Both Guitars
C#-----------------------------------------------------------------------|
G#-----------------------------------------------------------------------|
E -----------------------------------------------------------------------|
B -----------------------------------------------------------------------|
F#-0-00000-00000-0000-9-7-2-4-44444-44444-4444-4-7-2---------------------|
B –0-00000-00000-0000-9-7-2-4-44444-44444-4444-4-7-2---------------------|
   . ..... ..... ....         ..... ..... ....



Break(6:14-6:38) -Both Guitars
C#-----------------------------------------------------------------------|
G#-----------------------------------------------------------------------|
E -----------------------------------------------------------------------|
B -----------------------------------------------------------------------|
F#-----------------------------------------------------------------------|
B –4--4-4-6-7-4--4-4-6-7-4--4-4-6-7-4--4-4-6-7-4--4-4-6-7-4--------------|
   .  . . . . .  . . . . .  . . . . .  . . . . .  . . . . .
C#-----------------------------------------------------------------------|
G#-----------------------------------------------------------------------|
E -----------------------------------------------------------------------|
B -----------------------------------------------------------------------|
F#----------5--5-5-4-2-4--4-4-2-0----------------------------------------|
B –4-4-6-7---------------------------------------------------------------|
   . . . .


Break Alt.Ending (2:39-2:46) Guit. 1-High B string. Gui. 2-Low B string.*3-|
C#-------------------------------------------------------------------------|
G#-------------------------------------------------------------------------|
E -------------------------------------------------------------------------|
B -12--12-12-11-9-11--11-11-9-7-9--9-9-7-6-7--7-7-6-4-4--------------------|
F#----------------------------------------------------4--------------------|
B –12--12-12-11-9-11--11-11-9-7-9--9-9-7-6-7--7-7-6-4-4--------------------|


*********************************NOTES***********************************

1. Its the same riff as the intro, i just changed it up because i feel its
easier to speed pick all the notes with way. Less string skipping.

2. That part is Break 1 twice, Break 2 twice, then Break 1 twice again.
During Break 1 Guitar 2 is simply palm muting and strumming with the
drums doing the beat throughout the song with the low B and F# strings
open. During break 2 its the same thing, just with B and F# at 8. All
done with a flanger effect.

3. I added a 4 in the middle because both guitars should end on that
chord together.
********QUESTIONS/COMMENTS/CORRECTIONS EMAIL ME OR COMMENT HERE!!********
comments
print report bad tab
4 comments total. Showing first comments.
0 reply
mike_prae wrote on August 22 2007, 05:53 pm

sounds great !

0 reply
Kreuger wrote on November 15 2007, 03:20 pm

Im pretty sure they use B standard, not Drop B

0 reply
Shed. wrote on April 6 2008, 08:09 am

yeah you're right, Kreuger. they always use B standard.

I want to post or [tab]
guest
You may want to rate the tab now too:
select rating
Please do not post tabs as comments. Select "correction" instead!