Oops, an error
Loading. Please wait.

Pursuit Of Vikings Bass Tab

version 1
version 1

Whole song

Interactive

22,395 views 30 this week
4 commentsread comments
1 2 3 4 5
x 5
add to favorites
launch autoscroll
font size
0
reset
guitar tuner
Autoscroll
slow
fast
+/-
esc
set tempo
stop
Help us to improve Ultimate-Guitar.com Take our survey!
×
Author
Band: Amon Amarth
Song: Pursuit of Vikings
Album: Fate of norns
Tuning: DAEB

Riff 1 x3
D|-------------------|
A|-------------------|
E|-------------------|
B|--0-000-0-000-000--|

Riff 2 x2
D|------------------------------|
A|------------------------------|
E|------------------------------|
B|--0-00000000-0-000-0-000-000--|

Riff 3
D|--------------------------------------------|
A|--------------------------------------------|
E|---------------------------------------3-2--|
B|--7-777-7777777777777-7-777-7777777777------|

Riff 2 x2
Riff 3 x1
Riff 2 x2
Riff 3 x1
Riff 2 x2
Riff 3 x1

Riff 4
D|-------------------------|
A|-------------------------| x2
E|--------3-33-3-2-22------|
B|--0-0-0-------------333--|

Riff 5
D|--------------------|
A|--------------------|
E|----32-----33-22-0--|
B|--0----0-0----------|

D|-------------------|
A|-------------------|
E|--3-33-3-2-22------|
B|--------------333--|

D|--------------------|
A|--------------------|
E|----32-----33-22-0--|
B|--0----0-0----------|

D|--------------------|
A|--------------------|
E|--3-33-3-2-22---02--|
B|--------------3-----|

Riff 6
D|-------------------------------------------------------------------|
A|-------------------------------------------------------------------|
E|--7777777777777777777777777777777-3333333333333333333333333333333--|
B|-------------------------------------------------------------------|

D|----------------------------------------------------------------------|
A|----------------------------------------------------------------------|
E|--0000000000000000000000000000000------------------00000000-22222222--|
B|----------------------------------3333333333333333--------------------|

Riff 2 x2
Riff 3 x1
Riff 2 x2
Riff 3 x1
Riff 4 x2
Riff 5 x1

Riff 7 x3
D|----------------------------------------------------------------------|
A|----------------------------------------------------------------------|
E|----------------------------------3333333333333333-222222222222-------|
B|--0000000000000000000000000000000-------------------------------3333--|

Riff 8
D|----------------------------------------------------------------------|
A|----------------------------------------------------------------------|
E|----------------------------------3333333333333333-222222222222---02--|
B|--0000000000000000000000000000000-------------------------------3-----|
Suggest correction
comments
print report bad tab
4 comments total. Showing first comments.
0 reply
rattlehead924 248 Aug 31, 2007 10:15 AM

very good tab

0 reply
Zaphyrom 30 Jul 05, 2009 09:11 PM

they use five string bass, you dont tune it down

+1 reply
6METAL6BASSIST6 15,210 Apr 08, 2012 04:02 AM

Zaphyrom: They do use a 5 string but if you tune down to BEAD on a 4 string, it's the same thing, cause they don't even need the G string.

guest
You may want to rate the tab now too:
select rating
Wanna post a correction for this tab? Suggest correction