Oops, an error
Loading. Please wait.

Releasing Surturs Fire Tab

version 2
version 2

Whole song

Interactive

359 views 1 this week
no commentswrite comment
1 2 3 4 5
please rate
add to favorites
launch autoscroll
font size
0
reset
how to read this tab
guitar tuner
Autoscroll
slow
fast
+/-
esc
set tempo
stop
Help us to improve Ultimate-Guitar.com Take our survey!
×
Author
First attempt at tabbing a song out, so any feedback would be greatly appreciated. The 
bit I'm unsure of is the 2nd verse, but apart from that I think all the rest is right.
Appologies for no solo, get back to doing that some other time.

Tuning - B standard (B E A D F# B)

Guitar 1 + 2
Intro

B |---------------------|
F#|---------------------|
D |---------------------|
A |--2------------------|  x 4
E |--2------------------|
B |--0------------------|

Guitar 1
1st verse

B |------------------------------------------------------|
F#|------------------------------------------------------|
D |------------------------------------------------------|
A |-2"----4"----5"----7"----5"----4"----0"----2"----4"---|
E |------------------------------------------------------|
B |------------------------------------------------------|
                                                            x 4
B |------------------------------------------------------|
F#|------------------------------------------------------|
D |-------------------------------------5"----4"----2"---|
A |-2"----4"----5"----7"----5"----4"---------------------|
E |------------------------------------------------------|
B |------------------------------------------------------|

Guitar 2
1st verse

B |------------------------------------------------------|
F#|------------------------------------------------------|
D |------------------------------------------------------|
A |------------------------------------------------------| x 4
E |---------7"---------5"---------3"---------2"----------|
B |------------------------------------------------------|

Guitar 1
Breakdown

B |------------------------------------------------------|
F#|------------------------------------------------------|
D |------------------------------------------------------|
A |------------------------------------------------------|
E |--2-2-2-2---2--2---2-2-2-2-2-2-2----------------------|
B |--0-0-0-0---0--0---0-0-0-0-0-0-0----------------------|

Guitar 2
Breakdown

B |------------------------------------------------------|
F#|------------------------------------------------------|
D |------------------------------------------------------|
A |------------------------------------------------------|
E |2--2--2--2--2--2-2--2--2--2--2--2-2-------------------|
B |00000000000000000000000000000000000-------------------|


Guitar 1
Breakdown 2

B |--------------------------------------------------------|
F#|--------------------------------------------------------|
D |--------------------------------------------------------|
A |---------------------10-----------------10--------------|
E |-7---9----10---7---------9--9---9---9-------10----9-----|
B |--0-0--0-0--0-0--0-0---------7-7-7-7-7-7----------------|

Guitar 2
Breakdown 2                                             x 2

B |------------------------------------------------|
F#|------------------------------------------------|
D |------------------------------------------------|
A |---------------------2--------------------------|
E |---------------------2---------------2-2--------|
B |---------------------0---------------0-0--------|

Guitar 1 + 2
Breakdown 2 harmony

B |------------------------------------------------|
F#|------------------------------------------------|
D |------------------------------------------------|
A |--------------10----------------10--------------|   x 4
E |-7--9--10--7-----9--9--9--9--10----9------------|
B |--00-00-00-00--------77-77-77-------------------|

Guitar 1
2nd Verse

B |-----------------------------------------------------------------|
F#|-----------------------------------------------------------------|
D |-----------------------12"-----11"-----7"-----9"------11"-----9"-|
A |-11"------------9"-----------------------------------------------|
E |--------10"------------------------------------------------------|
B |-----------------------------------------------------------------|

B |-----------------------------|
F#|-----------------------------|
D |------------------11"--------|
A |----7"-----------------------| x 4
E |-----------7"----------------|
B |-----------------------------|

Guitar 1 + 2
Breakdown 2 harmony

B |------------------------------------------------|
F#|------------------------------------------------|
D |------------------------------------------------|
A |--------------10----------------10--------------|   x 4
E |-7--9--10--7-----9--9--9--9--10----9------------|
B |--00-00-00-00--------77-77-77-------------------|

Guitar 1 + 2
Breakdown 3 (Before solo)

B |------------------------------------------|
F#|------------------------------------------|
D |------------------------------------------|
A |------------------------------------------| x 4
E |--0--2--3--0----6--3--2------0--3--5--2---|
B |--0--2--3--0----6--3--2------0--3--5--2---|

On the 4th time round

B |------------------|
F#|------------------|
D |------------------|
A |------------------|
E |-2--2--2--2--2-2--|
B |-0--0--0--0--0-0--|

Solo

Guitar 1
1st verse (played again)

B |------------------------------------------------------|
F#|------------------------------------------------------|
D |------------------------------------------------------|
A |-2"----4"----5"----7"----5"----4"----0"----2"----4"---|
E |------------------------------------------------------|
B |------------------------------------------------------|
                                                            x 4
B |------------------------------------------------------|
F#|------------------------------------------------------|
D |-------------------------------------5"----4"----2"---|
A |-2"----4"----5"----7"----5"----4"---------------------|
E |------------------------------------------------------|
B |------------------------------------------------------|

Guitar 2
1st verse

B |------------------------------------------------------|
F#|------------------------------------------------------|
D |------------------------------------------------------|
A |------------------------------------------------------| x 4
E |---------7"---------5"---------3"---------2"----------|
B |------------------------------------------------------|

Guitar 1
Outro

B |---------------------|
F#|---------------------|
D |---------------------|
A |---------------------|
E |-0--2--4------5--2---|
B |-0--2--4------5--2---|
Suggest correction
What's this?
You can suggest a correction to this tab. Community and Mods will review your correction and vote to approve or reject it.
comments
We did not receive enough feedback on this tab! Please rate:
print report bad tab
1 2 3 4 5
guest
You may want to rate the tab now too:
select rating
Please do not post tabs as comments. Select "correction" instead!