Oops, an error
Loading. Please wait.

Runes To My Memory Tab

version 3
version 3
2,737 views 1 this week
3 commentsread comments
1 2 3 4 5
worth learning
x 4
add to favorites
launch autoscroll
font size
0
reset
how to read this tab
guitar tuner
Tab Pro tools
  • play this tab
  • loop segment
  • change instrument
  • show fretboard
  • metronome
Autoscroll
slow
fast
+/-
esc
set tempo
stop
Contributor
Difficulty
intermediate
Amon Amarth
Runes To My Memory
With Oden On Our Side
Metalblade Records

This is what I could make of it.

Tuning - BGBFAD

Intro    (Figure out strumming patterns)
D----------------------------------------------------|
A----------------------------------------------------|
F----------------------------------------------------|
B----------------------------------------------------|
G------------------------------5--3-5---6-6-8-6-5-3--|
B-8-7-5-5--7-8-1-0---5-7-8-7-5-5--7-8----------------|


Second Time Round
D----------------------------------------------------|
A----------------------------------------------------|
F----------------------------------------------------|
B----------------------------------------------------|
G-------5--3-5-----------------5-3-5---6-6-8-6-5-3---|
B-8-7-5-5--7-8-1-0---5-7-8-7-5-5-7-8-----------------|


Verse (Repeat x4)

D----------------------------------------------------------------------------|
A----------------------------------------------------------------------------|
F----------------------------------------------------------------------------|
B----------------------------------------------------------------------------|
G-1-----1-----1-----1-----0-----0-----0-----0----{1-----1-----1-----1--------|
B--5-5---5-5---5-5---5-5---3-3---3-3---3-3---3-3---1-1---1-1---1-1---1-1-----|x2
    . .   . .   . .   . .   . .   . .   . .   . .   . .   . .   . .   . .


Pre-chorus (Repeat twice-Figure out strumming patterns)

D--------------------------------------------------------------------------|
A--------------------------------------------------------------------------|
D--------------------------------------------------------------------------|
B--------------------------------------------------------------------------|
G-------------------13-12-10-10-12-13-15-10-12-10-12-10-8------------------|
B-13-12-10-10-12-13--------------------------------------------------------|

Chorus (I'm not quite sure of the underlapping guitar part, this is the best I could come up with)


  Overlapping lead part (Played twice)
D-------------------------------------------------------------------|
A-8-(8)-11-10-(10)--8-6-8po6-----------8-(8)-11-10-(10)-8-6-6/15-13-|
D----------------------------8-8-(8)--------------------------------|
B-------------------------------------------------------------------|
G-------------------------------------------------------------------|
B-------------------------------------------------------------------|

  Underlapping lead part (Release pressure after each note is played, repeated four times)
D-6----------5----------6-------------------------------------------|
A--8--}x4-----8--}x4-----8--}x4-------------------------------------|
D---7----------7----------8-----------------------------------------|
B-------------------------------------------------------------------|
G-------------------------------------------------------------------|
B-------------------------------------------------------------------|

  Chords (Strum each chord once, repeat four times)
D--------------------------|
A--------------------------|
D--------------------------|
B-5-(5)-8-3-(3)-1-(1)-3-(3)|
G-5-(5)-8-3-(3)-1-(1)-3-(3)|
B-5-(5)-8-3-(3)-1-(1)-3-(3)|

After chorus bit (Figure out strumming, repeat twice)
D--------|
A--------|
D--------|
B-8--7-8-|
G-10-8-6-|
B--------|

Repeat verse, pre-chorus and chorus again, but I think the chorus is played twice over 
the chords are fully strummed. Play the after chorus bit (just above) again and end with 
:

D---------------------|
A---------------------|
D---------------------|
B-8--(8)--7-(7)-8-7-7-|
G-10-(10)-8-(8)-6-5-5-|
B-------------------5-|
comments
print report bad tab
3 comments total.
0 reply
freenokia880NOT wrote on June 9 2007, 05:21 am

perfect!

0 reply
yesfx wrote on June 19 2007, 04:37 pm

yes i can sort of play it now!!!!

0 reply
QAAS wrote on December 19 2008, 08:40 pm

try to play the song with G and E tonic

I want to post or [tab]
guest
You may want to rate the tab now too:
select rating
Please do not post tabs as comments. Select "correction" instead!