Oops, an error
Loading. Please wait.

Runes To My Memory Tab

version 4
version 4
8,221 views 1 this week
10 commentsread comments
1 2 3 4 5
accurate
x 8
add to favorites
launch autoscroll
font size
0
reset
how to read this tab
guitar tuner
Tab Pro tools
  • play this tab
  • loop segment
  • change instrument
  • show fretboard
  • metronome
×
Best way to learn
"Runes To My Memory"
Autoscroll
slow
fast
+/-
esc
set tempo
stop
Contributor
Difficulty
novice
-------------------------------------------------------------------------------
                             Runes to my Memory - Amon Amarth
-------------------------------------------------------------------------------
Tabbed by:Greg Misiak
Email:metalfan4@gmail.com

Tuning: Drop B

                            MAIN RIFF

  Gtr. 1
c|--------------------------------------------------------------------------|
G|--------------------------------------------------------------------------|
E|--------------------------------------------------------------------------|
F|----------------------5-5--7-8--1-----------------------------------------|
F|----------------------5-5--7-8--1-----------------------------------------|
B|8"---7"--5"-----5-5-5-5-5--7-8--1-1"--3"--1"-0"----5"-7"-8"---7"--5"------|
 |                . . .                                                     | 

 |Gtr. 2                                                                    |
c|--------------------------------------------------------------------------|
G|--------------------------------------------------------------------------|
E|--------------------------------------------------------------------------|
F|---------------------5-5---7-8--1-----------------------------------------|
F|---------------------5-5---7-8--1-----------------------------------------|
B|8"---7"--5"----5-5-5-5-5---7-8--1-1"--3"--1"-0"----5"-7"-8"---7"--5"------|
                 . . .
  

Gtr. 1
c|--------------------------------------------------------------------------|
G|---------------------------------------O----------------------------------|
E|--------------------------------------------------------------------------|
F|--------5-5-7--8----------------------------------------------------------|
F|--------5-5-7--8---6"--8"--5"--3"--1"--O----------------------------------|
B|--5-5-5-5-5-7--8----------------------------------------------------------|
 |  . . .                                                                   |
 |Gtr. 2                                                                    |
c|--------------------------------------------------------------------------|
G|---------------------------------------O----------------------------------|
E|--------------------------------------------------------------------------|
F|--------5-5-7--8----------------------------------------------------------|
F|--------5-5-7--8---6"--8"--5"--3"--1"--O----------------------------------|
B|--5-5-5-5-5-7--8----------------------------------------------------------|
    . . . 

  
                          VERSE RIFF
  Gtr. 1           
c|--------------------------------------------------------------------------|
G|O------------------------------------------------------------O------------|
E|--------------------------------------------------------------------------|
F|--------------------------------------------------------------------------|
F|O--O------------|
B|--------8-5-0-----------------7-3-0--------------8-5-0--------------------|
 |                                                                          |
 |Gtr. 2                                                                    |
c|--------------------------------------------------------------------------|
G|O------------------------------------------------------------O------------|
E|--------------------------------------------------------------------------|
F|--------------------------------------------------------------------------|
F|O--O------------|
B|--------8-5-0-----------------7-3-0--------------8-5-0--------------------|
 


                              RIFF 2
  Gtr. 1
c|--------------------------------------------------------------------------|
G|-----------------------------------------------------------------O--------|
E|-------------------------------------5"-----------------------------------|
F|---------------------8"-7"-5"--7"-8"----5"--7"--5"--7"---5"---------------|
F|-6"--5"--3"--5"--6"-------------------------------------------8"-O--------|
B|--------------------------------------------------------------------------|
 |                                                                          |
 |Gtr. 2                                                                    |
c|--------------------------------------------------------------------------|
G|-----------------------------------------------------------------O--------|
E|-------------------------------------5"-----------------------------------|
F|---------------------8"-7"-5"--7"-8"----5"--7"--5"--7"---5"---------------|
F|-6"--5"--3"--5"--6"-------------------------------------------8"-O--------|
B|--------------------------------------------------------------------------|
  

                     
                          CHORUS RIFF
  Gtr. 1                                  2nd time: fade out on 10
c|-----------------------------------------10--8----------------------------|
G|-8---11-10--8----8---------8---11-10-8------O-----------------------------|
E|--------------10--10-8--10------------10----------------------------------|
F|--------------------------------------------------------------------------|
F|--------------------------------------------O-----------------------------|
B|--------------------------------------------------------------------------|
 |     Timing is off.                                                       |
 |Gtr. 2                                                                    |
c|--------------------------------------------------------------------------|
G|-11-------11-------11------O----------------------------------------------|
E|----12-10----12-10----12-10-----------------------------------------------|
F|--------------------------------------------------------------------------|
F|---------------------------O----------------------------------------------|
B|--------------------------------------------------------------------------|

 


                           RIFF 3
  Gtr. 1
c|--------------------------------------------------------------------------|
G|--------------------------------------------------------------------------|
E|--------------------------------------------------------------------------|
F|-0-0-0-0--0-0-0-0---------------------------------------------------------|
F|-8-8-8-8--0-0-0-0---------------------------------------------------------|
B|-8-8-8-8--7-7-7-7---------------------------------------------------------|
 |                                                                          |
 |Gtr. 2                                                                    |
c|--------------------------------------------------------------------------|
G|--------------------------------------------------------------------------|
E|--------------------------------------------------------------------------|
F|-0-0-0-0--0-0-0-0---------------------------------------------------------|
F|-8-8-8-8--0-0-0-0---------------------------------------------------------|
B|-8-8-8-8--7-7-7-7---------------------------------------------------------|

 For those last chords, the articulation, dispersion, and repetitions are clearly
misrepresented. Figure that out on your own.




| /  slide up
| \  slide down
| h  hammer-on
| p  pull-off
| ~  vibrato
| +  harmonic
| x  Mute note
===============================================================================
comments
print report bad tab
10 comments total. Showing first comments.
+1 reply
Shredman-J wrote on July 12 2007, 03:51 pm

The Tab is pretty much correct but the tuning drop b isnt BFFEGc....it just sounds messed up.

+1 reply
Kreuger wrote on July 28 2007, 12:15 pm

The hell kind of tuning is that? Drop B is B-F-Bb-Eb-G-C

0 reply
MayheM745 wrote on October 2 2007, 08:28 pm

it sounds like youve got the right idea, but i think guitar one is tremolo picking the intro while the second guitar does the chords

I want to post or [tab]
guest
You may want to rate the tab now too:
select rating
Please do not post tabs as comments. Select "correction" instead!