Oops, an error
Loading. Please wait.

Runes To My Memory Tab

version 6
version 6
13,808 views 3 this week
2 commentsread comments
1 2 3 4 5
accurate
x 7
add to favorites
launch autoscroll
font size
0
reset
how to read this tab
guitar tuner
Autoscroll
slow
fast
+/-
esc
set tempo
stop
Help us to improve Ultimate-Guitar.com Take our survey!
×
Author
lacjam666 301
Intro (0:00-0:29)
E|----------------------------|-----------------|-----------------------------|
B|----------------------------|-----------------|-----------------------------|
G|----------------------------|-----------------|-----------------------------|
D|----------------------------|-----------------|-----------------------------|
A|----------------------------|-----------------|-----------------------------|
E|----------------------------|-----------------|88888881010887777777---------|
B|88888877555-5-5-5-5555557788|11111110000005577|--------------------101010888|
              . . .
Verse 1 (0:30-0:59) and (2:17-2:47)
E|----------------------------------------------|
B|----------------------------------------------|
G|----------------------------------------------|
D|----------------------------------------------|
A|----------------------------------------------|
E|3--3—-3-—3—-2--2--2--2--3--3--3--3--3--3--3--3|
B|-05-05-05-05-05-05-05-05-05-05-05-05-05-05-05-|
   .. .. .. .. .. .. .. .. .. .. .. .. .. .. ..  

Verse 2 (1:00-1:30) and (2:48-3:17)
E|-------------------------------------------------------------------------------|
B|-------------------------------------------------------------------------------|
G|-------------------------------------------------------------------------------|
D|-------------------------------------------------------------------------------|
A|----------------101010109977777799910101012121212777799997777999999------------|
E|8888775555557788---------------------------------------------------121212101010|
B|-------------------------------------------------------------------------------|

Verse 3(1:31-2:00) and (3:18-4:03)
E|----------------|---------|-------|-------------------------------------------|
B|----------------|---------|12---10|12~~~--------------------------------------|
G|9---12-11---9-7-|97------7|-------|---hold the vibrato then touch the string--|
D|----------------|--910~---|-------|---on the bar just after the 24th fret with|
A|----------------|---------|-------|---your picking hand to make the high pitch|
E|----------------|---------|-------|-----------------sound---------------------|
B|----------------|---------|-------|-------------------------------------------|
 |
E|----------------|
B|----------------|
G|----------------|
D|----------------|
A|----------------|
E|7-----5----3----|
B|5---8-3----1----|
 |
E|-----------------------------------------------------------------------------------------------|
B|8p5p0h8p5p0h8p5p0h8p5p0h7p3p0h7p3p0h7p3p0h7p3p0h8p3p0h8p3p0h8p3p0h8p3p0h8p3p0h8p3p0h8p3p0h8p3p0|
G|-----------------------------------------------------------------------------------------------|
D|-----------------------------------------------------------------------------------------------|
A|-----------------------------------------------------------------------------------------------|
E|-----------------------------------------------------------------------------------------------|
B|-----------------------------------------------------------------------------------------------|

Verse 4 (2:01-2:16) and (4:04-4:18)
E|----------------------------------------------------|
B|----------------------------------------------------|
G|----------------------------------------------------|
D|----------------------------------------------------|
A|10101010-9-9-9-910101010101010105555-9-9-9-910101010|
E|1212121210101010-8-8-8-8-8-8-8-8777710101010-8-8-8-8|
B|----------------------------------------------------|

Outro (4:19-4:31)
E|------------------|
B|------------------|
G|------------------|
D|------------------|
A|5555-9---7-5------|
E|777710---8-7-7----|
B|------------------|
Suggest correction new What's this?
You can suggest a correction to this tab. Community and Mods will review your correction and vote to approve or reject it.
comments
print report bad tab
2 comments total.
0 reply
Aldhissla 45 wrote on September 9 2014, 10:37 am

Lack of accuracy. Clearly wrong. Rhythm guitar in the verse is wrong. The same thing goes for the tabbing part. I suggest having a look at the guitar pro tab version 6 to get those parts right (melody-wise at least).

0 reply
AdrianGabardo 107 wrote on December 29 2014, 09:04 pm

Lack of accuracy. no "-" left between notes, can't even know if it's 11 or 1, where there's 5 and 7 are easy to know but where are minor notes there's no way to be sure

guest
You may want to rate the tab now too:
select rating
Please do not post tabs as comments. Select "correction" instead!