Oops, an error
Loading. Please wait.

Tattered Banners And Bloody Flags Tab

version 5
version 5

Whole song

Interactive

1,016 views 1 this week
no commentswrite comment
1 2 3 4 5
2 more votes to show rating
add to favorites
launch autoscroll
font size
0
reset
how to read this tab
guitar tuner
Autoscroll
slow
fast
+/-
esc
set tempo
stop
Help us to improve Ultimate-Guitar.com Take our survey!
×
Author
Tuning
B E A D F# B
Well this is my first tab, only because I think my version is more correct than the 
other tabs. Not to be a di@#.


NOTE! I just learned this today and I only finished one of the guitar parts, though if 
you want the rest, rate this HIGHLY.



Amon Amarth - Tattered Banners And Bloody Flags

Drop B



. = Palm Mute
' = tremolo pick


C#|----------------------------------|-------------------------------|
G#|----------------------------------|-------------------------------|
E |----------------------------------|-------------------------------|
B |----7777----5555----8888----7777--|----7777----5555---------------|
F#|----------------------------------|------------------3333---7777--|
B |--0------0-------0--------0-------|--0------0------0------0-------|
     .      .       .        .          .      .      .      .

NOTE: I find this easier to if you hit the open B, wait like .25 seconds, then do the 
Gallop (the 4 notes). But right after the Gallop, hit the open B

C#|----------------------------------|-------------------------------|
G#|----------------------------------|-------------------------------|
E |----------------------------------|-------------------------------|
B |----7777----5555----8888----7777--|----7777----5555---------------|
F#|----------------------------------|-----------------3'-----7'-----|
B |--0------0-------0--------0-------|--0------0---------------------|   2x
     .      .       .        .          .      .
____________________________________________________________________________

C#|----------------------------------|-------------------------------|
G#|----------------------------------|-------------------------------|
E |----------------------------------|-------------------------------|
B |--5'--7'----5'--7'----5'--7'------|8'----7'--8'----10'------------|
F#|----------------------------------|-------------------------------|
B |----------------------------------|-------------------------------|


C#|----------------------------------|-------------------------------|
G#|----------------------------------|-------------------------------|
E |----------------------------------|-------------------------------|
B |--5'--7'----5'--7'----5'--7'------|-------------------------------|
F#|------------------------------7'--|8'----7'--5'------3'-----------|
B |----------------------------------|-------------------------------|   2x
____________________________________________________________________________


C#|----------------------------------|-------------------------------|
G#|----------------------------------|-------------------------------|
E |----------------------------------|-------------------------------|
B |----7777----5555----8888----7777--|----7777----5555---------------|
F#|----------------------------------|------------------3333---7777--|
B |--0------0-------0--------0-------|--0------0------0------0-------|
     .      .       .        .          .      .      .      .

C#|----------------------------------|-------------------------------|
G#|----------------------------------|-------------------------------|
E |----------------------------------|-------------------------------|
B |----7777----5555----8888----7777--|----7777----5555---------------|
F#|----------------------------------|-----------------3'-----7'-----|
B |--0------0-------0--------0-------|--0------0---------------------|   2x
     .      .       .        .          .      .
____________________________________________________________________________


C#|----------------------------------|-------------------------------|
G#|----------------------------------|-------------------------------|
E |----------------------------------|-------------------------------|
B |--5'--7'----5'--7'----5'--7'------|8'----7'--8'----10'------------|
F#|----------------------------------|-------------------------------|
B |----------------------------------|-------------------------------|


C#|----------------------------------|-------------------------------|
G#|----------------------------------|-------------------------------|
E |----------------------------------|-------------------------------|
B |--5'--7'----5'--7'----5'--7'------|-------------------------------|
F#|------------------------------7'--|8'----7'--5'------3'-----------|
B |----------------------------------|-------------------------------|   4x
____________________________________________________________________________


C#|----------------------------------|-------------------------------|
G#|----------------------------------|-------------------------------|
E |----------------------------------|-------------------------------|
B |----7777----5555----8888----7777--|----7777----5555---------------|
F#|----------------------------------|------------------3333---7777--|
B |--0------0-------0--------0-------|--0------0------0------0-------|
     .      .       .        .          .      .      .      .

C#|----------------------------------|-------------------------------|
G#|----------------------------------|-------------------------------|
E |----------------------------------|-------------------------------|
B |----7777----5555----8888----7777--|----7777----5555---------------|
F#|----------------------------------|-----------------3'-----7'-----|
B |--0------0-------0--------0-------|--0------0---------------------|   2x
     .      .       .        .          .      .
____________________________________________________________________________

NOTE: There are no spaces in the songs, on this part, I only did this so it is easier to read.
12 - 12th fret

!!!!All Palm Mute!!!!

C#|----------------------------------|-------------------------------|
G#|----------------------------------|-------------------------------|
E |----------------------------------|-------------------------------|
B |--8888-12121212-88-1212-88-1212---|---12121212----1212----1212----|
F#|--------------------------------88|88----------88------88---------|
B |----------------------------------|-------------------------------|


C#|----------------------------------|-------------------------------|
G#|----------------------------------|-------------------------------|
E |----------------------------------|-------------------------------|
B |--10101010-77777777-1010-88-77-888|888-555555-777777-333333-------|
F#|----------------------------------|-------------------------------|
B |----------------------------------|-------------------------------|   4x
____________________________________________________________________________



C#|----------------------------------|-------------------------------|
G#|----10-10-8-------11-11-10--------|----10-10-8--------------------|
E |----x--x--x-------x--x--x---------|----x--x--x-------10-12-10-9---|
B |----7--7--5-------8--8--7---------|----7--7--5--------------------|
F#|----------------------------------|------------------8--10-8--7---|
B |--0------------0------------------|--0----------------------------|   8x
     .            .                     .
____________________________________________________________________________


C#|----------------------------------|-------------------------------|
G#|----------------------------------|-------------------------------|
E |----------------------------------|-------------------------------|
B |----7777----5555----8888----7777--|----7777----5555---------------|
F#|----------------------------------|------------------3333---7777--|
B |--0------0-------0--------0-------|--0------0------0------0-------|
     .      .       .        .          .      .      .      .

C#|----------------------------------|-------------------------------|
G#|----------------------------------|-------------------------------|
E |----------------------------------|-------------------------------|
B |----7777----5555----8888----7777--|----7777----5555---------------|
F#|----------------------------------|-----------------3'-----7'-----|
B |--0------0-------0--------0-------|--0------0---------------------|   2x
     .      .       .        .          .      .
____________________________________________________________________________


!!!!All Palm Mute!!!!

C#|----------------------------------|-------------------------------|
G#|----------------------------------|-------------------------------|
E |----------------------------------|-------------------------------|
B |--8888-12121212-88-1212-88-1212---|---12121212----1212----1212----|
F#|--------------------------------88|88----------88------88---------|
B |----------------------------------|-------------------------------|


C#|----------------------------------|-------------------------------|
G#|----------------------------------|-------------------------------|
E |----------------------------------|-------------------------------|
B |--10101010-77777777-1010-88-77-888|888-555555-777777-333333-------|
F#|----------------------------------|-------------------------------|
B |----------------------------------|-------------------------------|   4x
                 At the 4th... round... (i guess?), the song slows down, and the 8's, 
7', 5's, and 3's become single/non-palm muted notes.
____________________________________________________________________________

Last note!

C#|----------------------------------|
G#|----------------------------------|
E |----------------------------------|
B |--0-------------------------------|
F#|--0-------------------------------|
B |--0-------------------------------|

or                             Mainly becuase i can't tell which one it is.

C#|----------------------------------|
G#|----------------------------------|
E |----------------------------------|
B |--5-------------------------------|
F#|--5-------------------------------|
B |--5-------------------------------|

There ya go!
                                                                 Hallomean13
Suggest correction
Give kudos to tab author, rate the tab!
1 2 3 4 5
comments
print report bad tab
guest
You may want to rate the tab now too:
select rating
Wanna post a correction for this tab? Suggest correction