Oops, an error
Loading. Please wait.

The Fate Of Norns Tab

version 2
version 2

Whole song

Interactive

4,750 views 9 this week
1 commentread comment
1 2 3 4 5
2 more votes to show rating
add to favorites
launch autoscroll
font size
0
reset
how to read this tab
guitar tuner
×
Best way to learn
"The Fate Of Norns"
Autoscroll
slow
fast
+/-
esc
set tempo
stop
Author
Difficulty
Amon Amarth - Fate Of Norns
The way this tab is set you can play the song in standard tuning and it will sound 
pretty close.

 [Intro]
e|----------------------------|
B|----------------------------|
G|----------------------------|    5x
D|----------------------------|
A|---------6----6-------4---4-|
E|--4-4-4----4----4-4-4---4---|

[Riff A]
e|------------------------------------------------------|
B|------------------------------------------------------|
G|------------------------------------------------------|
D|------------------------------------------------------|
A|--------6----6-------4---4----------------------------|
E|-4-4-4----4----4-4-4---4-----4-4-4-7-4-7--4-4-4-6-4-6-|

[Riff B]
e|----------------------------------------------------|
B|----------------------------------------------------|
G|----------------------------------------------------|
D|----------------------------------------------------|
A|-------4---4---------------------4---4--------------|
E|-2-2-2---2---2-2-2-6-2-6---2-2-2---2---2-2-2-6-2-6--|

[Riff C]
e|----------------------------------------------|
B|----------------------------------------------|
G|--1------3-4-3-1-4/8---3--4--1-4-1-3-4-3------|(2x
)
D|------------------------------------------4---|
A|----------------------------------------------|
E|----------------------------------------------|

[Riff D]
e|----------------------------------------------------------------------------|
B|----------------------------------------------------------------------------|
G|----------------------------------------------------------------------------|
D|----------------------------------------------------------------------------|
A|------2-2----4-4----5-5----7-7----7-7----9-9----10-10----12-12----5-5----7--|
E|--0000-0-0000-0-0000-0-0000-0-0000-0-0000-0-0000--0--0000--0--0000-0-0000-0-|

PM ---- - ---- - ---- - ---- - ---- - ---- - ----  -  ----  -  ---- - ---- -

e|------------------------------------------------|
B|------------------------------------------------|
G|------------------------------------------------|(4x)
D|------------------------------------------------|
A|7----9-9----10-10----9-9----4-4----9-9----12-12-|
E|-0000-0-0000--0--0000-0-0000-0-0000-0-0000--0---|
  ---- - ----  -  ---- - ---- - ---- - ----  -

[Riff E]
e|----------------------------------------------------------------------------|
B|----------------------------------------------------------------------------|
G|----------------------------------------------------------------------------|
D|----------------------------------------------------------------------------|
A|--22222222224444444444555555555577777777779999999999910101010101010555555555|
E|----------------------------------------------------------------------------|

e|------------------------------------------------------------------------|
B|------------------------------------------------------------------------|
G|------------------------------------------------------------------------|
D|------------------------------------------------------------------------| 3x
A|5777777777799999999999101010101010109999999999999999991212121212121212--|
E|------------------------------------------------------------------------|

[Riff F]
e|----------------------------------------------------------------------------|
B|----------------------------------------------------------------------------|
G|----------------------------------------------------------------------------|
D|----------------------------------------------------------------------------|
A|--22222222224444444444555555555577777777779999999999910101010101010555555555|
E|----------------------------------------------------------------------------|

e|-----------------------------------------|
B|-----------------------------------------|
G|-----------------------------------------|
D|-----------------------------------------|
A|57777777777-9-9-10-10-9------12----------|
E|-----------------------------------------|

[Riff G]
e|------------------------|
B|------------------------|
G|------------------------|
D|------------------------|
A|--44444444444444444444--|
E|--22222222222222222222--|

[Riff H]
e|-------------------------------------------------------------|
B|-------------------------------------------------------------|
G|-------------------------------------------------------------|
D|-------------------------------------------------------------|(4x)
A|-------4---4-------2---2--------------------------666666666--|
E|-2-2-2---2---2-2-2---2---2-2-2-5-2-5--2-2-2-4-2-4-444444444--|

e|----------------------------------------------|
B|----------------------------------------------|
G|--1------3-4-3-1-4/8---3--4--1-4-1-3-4-3------|(6x)
D|------------------------------------------4---|
A|----------------------------------------------|
E|----------------------------------------------|

***********************************

| /  Slide up

************************************
Suggest correction
Give kudos to tab author, rate the tab!
1 2 3 4 5
comments
print report bad tab
1 comment total.
0 reply
theoldwizard 31 Oct 09, 2009 03:12 AM

Awesome tab man

guest
You may want to rate the tab now too:
select rating
Wanna post a correction for this tab? Suggest correction