Oops, an error
Loading. Please wait.

The Pursuit Of Vikings Bass Tab

version 2
version 2

Whole song

896 views 18 this week
no commentswrite comment
1 2 3 4 5
3 more votes to show rating
add to favorites
launch autoscroll
font size
0
reset
guitar tuner
×
Best way to learn
"The Pursuit Of Vikings"
Autoscroll
slow
fast
+/-
esc
set tempo
stop
Author
Difficulty
Tuning
  follow
novice
B E A D
Band: Amon Amarth
Song: Pursuit of Vikings
Tuning: B E A D


Are you tired of playing the same note over and over again? Check this one out to have 
fun while playing the song!

!!I won't write, for example, 7-7-7-8-8-8, instead I will write 7--8 and you should be 
able to hear for yourself where to change. You're the one playing the bass!!


INTRO - THE GUITAR PLAYS FIRST - YOU COME WITH THE DRUMS
D|-------------------|
A|-------------------|
E|-------------------|
B|--0--0--0--0--0-0-0|

D|-------------------| X 2
A|--------------10---|
E|--7---9-10--7------|
B|-0--0-----0------0-| - !NOTE! - READ WHAT I WROTE BEFORE IF YOU HAVEN'T

D|-------------------------------------|
A|-------------------------------------|
E|-------------------------------------|
B|-7-8-10-8-7-5-7-8-7--7-8-10-8-7-3-2-0|

THESE 2 PARTS ARE PLAYED BACK AND FORTH FROM 0:15-01:15

D|-------------------------------------| 01:15
A|-------------------------------------|
E|-------------------------------------|
B|-0---8--7---3--2--0---0---8--7---3--2|

D|-------------------------------| 01:28
A|-------------------------------|
E|-------------------------------|
B|-0--8--7--0--8--7--5--8-7--3-2-| X 2

D|-------------------------------------------| 01:43-02:43
A|-------------------------------------------|
E|---2--0--2--3--5--3--3--5--7--2--2--0------|
B|-0------------------------------------3--2-| X 4

D|-------------------| 02:46
A|--------------10---|
E|--7---9-10--7------| X 2
B|-0--0-----0------0-|

D|-------------------------------------|
A|-------------------------------------|
E|-------------------------------------|
B|-7-8-10-8-7-5-7-8-7--7-8-10-8-7-3-2-0|

PLAY THESE PARTS 2 TIMES - YOU CAN HEAR IT

D|-------------------------------------| 03:16-03:30
A|-------------------------------------|
E|-------------------------------------|
B|-0---8--7---3--2--0---0---8--7---3--2|

D|-------------------------------| 03:31 - 04:00
A|-------------------------------|
E|-------------------------------|
B|-0--8--7--0--8--7--5--8-7--3-2-| X 4

D|-----------------| 04:01
A|-----------------|
E|-----------------|
B|-0--8--7--3--2---| - FAVORITE PART - YOU'RE DOMINATING THE SONG HERE

D|---------------|
A|---------------|
E|---------------|
B|-8--7--3--5--7-|

Hopefully you should be able to understand how the song is played when reading these tabs.

If you have come to the bottom of this page and still don't know how to play, then I 
will try to teach you one more time!

!!The part that starts 04:01, should be played like this:
D|--------------------------------|
A|--------------------------------|
E|--------------------------------|
B|-0-0-0-0-0-0-0-0-0-0-0-0-0-0-0-0|

D|--------------------------------|
A|--------------------------------|
E|--------------------------------|
B|-8-8-8-8-8-8-8-8-7-7-7-7-7-3-3-2|
I hope that you can understand how the tabs are written. I think it's easier the way I 
have wrote it!!


If you have any questions, just message me.
, Liam.
Suggest correction
Give kudos to tab author, rate the tab!
1 2 3 4 5
comments
print report bad tab
guest
You may want to rate the tab now too:
select rating
Wanna post a correction for this tab? Suggest correction