Oops, an error
Loading. Please wait.
We have an official Twilight Of The Thunder God tab made by UG professional guitarists. Check out the tab »
×
8,016 views 18 this week
1 commentread comment
1 2 3 4 5
x 4
add to favorites
×
Save as Personal and add changes to this tab that will be seen only by you. Learn more ›
×
You can save this tab as Personal to edit and correct it or add notes. All changes will be seen only by you. Learn more »
launch autoscroll
font size
0
reset
guitar tuner
backing track
0:00
0:00
edit
Autoscroll
slow
fast
+/-
esc
set tempo
stop
Author
G|-----------------------------------------------------------------|
D|-----------------------------------------------------------------|
A|-----------------------------------------------------------------|
E|-----------------------------5-5---------------------------------|
B|-2---------------2-------5-5-----0---------------0---------------|
   1 + 2 + 3 + 4 + 1 + 2 + 3 + 4 + 1 + 2 + 3 + 4 + 1 + 2 + 3 + 4 +

G|-----------------------------------------------------------------|
D|-----------------------------------------------------------------|
A|-----------------------------------------------------------------|
E|-----------------------------5-5---------------------------------|
B|-2---------------2-------5-------0---------------12\\\\\\0//////-|
   1 + 2 + 3 + 4 + 1 + 2 + 3 + 4 + 1 + 2 + 3 + 4 + 1 + 2 + 3 + 4 +

0:20 x4                         1:00
G|------------------------------|-----------------------------------------------|
D|o----------------------------o|o---------------------------------------------o|
A|------------------------------|-----------------------------------------------|
E|o----------------------------o|o---------------------------------------------o|
B|--2(x48)-5(x4)-10(x4)-0(x64)--|--2(x32)--5(x32)--0(x32)--2(x12)-002242-2(x8)--|
    32nd   16th        32nd                                       16th   32nd

1:20
G|---------------------------------|
D|---------------------------------|
A|---------------------------------|
E|-------4--5--4-2-------4--5--4-2-|
B|-5--2------------5--2------------|
   1 + 2 + 3 + 4 + 1 + 2 + 3 + 4 +

1:25                            1:45
G|------------------------------|---------------------------------------------|
D|o----------------------------o|o-------------------------------------------o|
A|------------------------------|---------------------------------------------|
E|o----------------------------o|o-------------------------------------------o|
B|--2(x48)-5(x4)-10(x4)-0(x64)--|--2(x32)--5(x32)--0(x32)--222222002242--222--|
    32nd   16nd         32nd                               16th    

2:06
G|------------------------------------------------------------------|
D|------------------------------------------------------------------|
A|------------------------------------------------------------------|
E|-------4--5--4-2-------4--5--4-2----------------------------------|
B|-5--2------------5--2------------2---------------2///////14--22-2-|
   1 + 2 + 3 + 4 + 1 + 2 + 3 + 4 + 1 + 2 + 3 + 4 + 1 + 2 + 3 + 4 +

2:16 x4
G|-------------------------------------------------------------------|
D|o-----------------------------------------------------------------o|
A|-------------------------------------------------------------------|
E|o-----------------------------------------------------------------o|
B|--5-2-2-2-2-2-2-2-5-3-2-2-2-2-2-2-0-2-2-2-2-2-2-2-3-2-2-2-0-2-2-2--|
    1   +   2   +   3   +   4   +   1   +   2   +   3   +   4   +   

2:36 x6
G|------------------------------------------------------------------|
D|o----------------------------------------------------------------o|
A|------------------------------------------------------------------|
E|o----------------------------------------------------------------o|
B|--0-2-------------5-3-------------0-2-------------3-2-----5-3-----|
    1   +   2   +   3   +   4   +   1   +   2   +   3   +   4   +  

3:07
G|------------------------------------------------------------------|
D|------------------------------------------------------------------|
A|------------------------------------------------------------------|
E|-------------------------------5-7--------------------------------|
B|-2---------2-2---------------5-----------------0-0----------------|
   1 + 2 + 3 + 4 + 1 + 2 + 3 + 4 + 1 + 2 + 3 + 4 + 1 + 2 + 3 + 4 +

3:16                           
G|----------------------------------------------------------------------------------|
D|----------------------------------------------------------------------------------|
A|----------------------------------------------------------------------------------|
E|----------------------------------------------------------------------------------|
B|-2(x32)--5(x32)--0(x32)--2(x16)-2245-40--2(x32)--5(x32)--0(x32)--22222202-224540--|
   32nd                           16th      32nd                   16th

3:36
G|--------------------------------------------|
D|o------------------------------------------o|
A|--------------------------------------------|
E|o------------------------------------------o|
B|--2(x32)--5(x32)--0(x32)--222222002242-222--|
    32nd                    16th    

3:56
G|---------------------------------|---|
D|---------------------------------|---|
A|---------------------------------|---|
E|-------4--5--4-2-------4--5--4-2-|---|
B|-5--2------------5--2------------|-2-|
   1 + 2 + 3 + 4 + 1 + 2 + 3 + 4 +

            
            
Suggest correction
Creating personal tab
Creating personal tab
You can edit any tab online and save it as your Personal.

You can edit, replace or remove any tab part or add personal notes – all changes will be seen only by you.

Personal tabs can be accessed anytime from any device, even offline.
Learn more »
comments
print report bad tab
1 comment total.
+2 reply
6METAL6BASSIST6 [tm] 23,005 Dec 24, 2012 09:40 AM

Great tab, would have hated to take the time to learn by ear, even though I probably could. Saved time though so thank you.

guest
You may want to rate the tab now too:
select rating
Wanna post a correction for this tab? Suggest correction