Oops, an error
Loading. Please wait.
We have an official Under The Northern Star tab made by UG professional guitarists. Check out the tab »
×
6,435 views 18 this week
3 commentsread comments
1 2 3 4 5
x 3
add to favorites
×
Save as Personal and add changes to this tab that will be seen only by you. Learn more ›
×
You can save this tab as Personal to edit and correct it or add notes. All changes will be seen only by you. Learn more »
launch autoscroll
font size
0
reset
how to read this tab
guitar tuner
edit
Autoscroll
slow
fast
+/-
esc
set tempo
stop
Author
Song   : Under the Northern Star
Band   : Amon Amarth
CD     : With Oden On Our Side
Year   : 2006
Part   : Rhythm
Tuning : BEADF#B

(Taken from the guitar pro file, I take no credit for this)

B ||--------------------------|--------------------------|
F#||--------------------------|--------------------------|
D ||--------------------------|--------------------------|
A ||--------------------------|--------------------------|
E ||--------------------------|--------------------------|
B ||--2--2--2--2--2--2--2--2--|--2--2--2--2--2--2--2--2--|


--------------------------|--------------------------|
--------------------------|--------------------------|
--------------------------|--------------------------|
--------------------------|--------------------------|
--------------------------|--------------------------|
--2--2--2--2--2--2--2--2--|--2--2--2--2--2--2--2--2--|


--------------------------|--------------------------|
--------------------------|--------------------------|
--------------------------|--------------------------|
--------------------------|--------------------------|
--------------------------|--------------------------|
--0--0--0--0--0--0--0--0--|--0--0--0--0--0--0--0--0--|


--------------------------|--------------------------|
--------------------------|--------------------------|
--------------------------|--------------------------|
--------------------------|--------------------------|
--4--4--4--4--4--4--4--4--|--4--4--4--4--4--4--4--4--|
--------------------------|--------------------------|


--------------------------|--------------------------|
--------------------------|--------------------------|
--------------------------|--------------------------|
--------------------------|--------------------------|
--------------------------|--------------------------|
--2--2--2--2--2--2--2--2--|--2--2--2--2--2--2--2--2--|


--------------------------|--------------------------|
--------------------------|--------------------------|
--------------------------|--------------------------|
--------------------------|--------------------------|
--------------------------|--------------------------|
--2--2--2--2--2--2--2--2--|--2--2--2--2--2--2--2--2--|


--------------------------|--------------------------|
--------------------------|--------------------------|
--------------------------|--------------------------|
--------------------------|--------------------------|
--------------------------|--------------------------|
--0--0--0--0--0--0--0--0--|--0--0--0--0--0--0--0--0--|


--------------------------|--------------------------|----------------------|
--------------------------|--------------------------|----------------------|
--------------------------|--------------------------|----------------------|
--------------------------|--------------------------|--4--------4----4--2--|
--4--4--4--4--4--4--4--4--|--4--4--4--4--4--4--4--4--|--4--------4----4--2--|
--------------------------|--------------------------|--2--------2----2--0--|


-----------------------|--------------------|------------------------|
-----------------------|--------------------|------------------------|
--------2----2---------|--------------------|------------------------|
--4--2--2----2----2----|--6--------6--------|--4--4------4--4--4--2--|
--4--0--0----0----2----|--4--------4--------|--4--4------4--4--4--2--|
--2--0------------0----|--4--------4--------|--2--2------2--2--2--0--|


--------------------|----------------------|----------------------|
--------------------|----------------------|----------------------|
--------------------|----------------------|----------------------|
--2--------2--------|--2--2--2----2--------|----------------------|
--2--------2--------|--2--2--2----2--------|--5--5--5----5--------|
--0--------0--------|--0--0--0----0--------|--5--5--5----5--------|


----------------------|----------------------|-----------------------|
----------------------|----------------------|-----------------------|
----------------------|----------------------|--------2----2---------|
----------------------|--4--------4----4--2--|--4--2--2----2----2----|
--5--2--2----2--------|--4--------4----4--2--|--4--0--0----0----2----|
--5--2--2----2--------|--2--------2----2--0--|--2--0------------0----|


--------------------|------------------------|--------------------|
--------------------|------------------------|--------------------|
--------------------|------------------------|--------------------|
--6--------6--------|--4--4------4--4--4--2--|--2--------2--------|
--4--------4--------|--4--4------4--4--4--2--|--2--------2--------|
--4--------4--------|--2--2------2--2--2--0--|--0--------0--------|


----------------------|----------------------|----------------------|
----------------------|----------------------|----------------------|
----------------------|----------------------|----------------------|
--2--2--2----2--------|----------------------|----------------------|
--2--2--2----2--------|--5--5--5----5--------|--5--2--2----2--------|
--0--0--0----0--------|--5--5--5----5--------|--5--2--2----2--------|


----------------------|-----------------------|--------------------|
----------------------|-----------------------|--------------------|
----------------------|--------2----2---------|--------------------|
--4--------4----4--2--|--4--2--2----2----2----|--6--------6--------|
--4--------4----4--2--|--4--0--0----0----2----|--4--------4--------|
--2--------2----2--0--|--2--0------------0----|--4--------4--------|


------------------------|--------------------|----------------------|
------------------------|--------------------|----------------------|
------------------------|--------------------|----------------------|
--4--4------4--4--4--2--|--2--------2--------|--2--2--2----2--------|
--4--4------4--4--4--2--|--2--------2--------|--2--2--2----2--------|
--2--2------2--2--2--0--|--0--------0--------|--0--0--0----0--------|


----------------------|----------------------|----------------------|
----------------------|----------------------|----------------------|
----------------------|----------------------|----------------------|
----------------------|----------------------|--4--------4----4--2--|
--5--5--5----5--------|--5--2--2----2--------|--4--------4----4--2--|
--5--5--5----5--------|--5--2--2----2--------|--2--------2----2--0--|


-----------------------|--------------------|------------------------|
-----------------------|--------------------|------------------------|
--------2----2---------|--------------------|------------------------|
--4--2--2----2----2----|--6--------6--------|--4--4------4--4--4--2--|
--4--0--0----0----2----|--4--------4--------|--4--4------4--4--4--2--|
--2--0------------0----|--4--------4--------|--2--2------2--2--2--0--|


--------------------|----------------------|----------------------|
--------------------|----------------------|----------------------|
--------------------|----------------------|----------------------|
--2--------2--------|--2--2--2----2--------|----------------------|
--2--------2--------|--2--2--2----2--------|--5--5--5----5--------|
--0--------0--------|--0--0--0----0--------|--5--5--5----5--------|


----------------------|--------------------------|--------------------------|
----------------------|--------------------------|--------------------------|
----------------------|--------------------------|--------------------------|
----------------------|--------------------------|--------------------------|
--5--2--2----2--------|--4--4--4--4--4--4--4--4--|--4--4--4--4--4--4--4--4--|
--5--2--2----2--------|--2--2--2--2--2--2--2--2--|--2--2--2--2--2--2--2--2--|


--------------------------|--------------------------|
--------------------------|--------------------------|
--------------------------|--------------------------|
--------------------------|--------------------------|
--4--4--4--4--4--4--4--4--|--4--4--4--4--7--7--7--7--|
--2--2--2--2--2--2--2--2--|--2--2--2--2--5--5--5--5--|


--------------------------|--------------------------|
--------------------------|--------------------------|
--------------------------|--------------------------|
--------------------------|--------------------------|
--2--2--2--2--2--2--2--2--|--2--2--2--2--2--2--2--2--|
--0--0--0--0--0--0--0--0--|--0--0--0--0--0--0--0--0--|


--------------------------|--------------------------|
--------------------------|--------------------------|
--------------------------|--------------------------|
--------------------------|--------------------------|
--4--4--4--4--4--4--4--4--|--4--4--4--4--4--4--4--4--|
--4--4--4--4--4--4--4--4--|--4--4--4--4--4--4--4--4--|


--------------------------|--------------------------|
--------------------------|--------------------------|
--------------------------|--------------------------|
--------------------------|--------------------------|
--4--4--4--4--4--4--4--4--|--4--4--4--4--4--4--4--4--|
--2--2--2--2--2--2--2--2--|--2--2--2--2--2--2--2--2--|


--------------------------|--------------------------|
--------------------------|--------------------------|
--------------------------|--------------------------|
--------------------------|--------------------------|
--4--4--4--4--4--4--4--4--|--4--4--4--4--7--7--7--7--|
--2--2--2--2--2--2--2--2--|--2--2--2--2--5--5--5--5--|


--------------------------|--------------------------|
--------------------------|--------------------------|
--------------------------|--------------------------|
--------------------------|--------------------------|
--2--2--2--2--2--2--2--2--|--2--2--2--2--2--2--2--2--|
--0--0--0--0--0--0--0--0--|--0--0--0--0--0--0--0--0--|


--------------------------|--------------------------|
--------------------------|--------------------------|
--------------------------|--------------------------|
--------------------------|--------------------------|
--4--4--4--4--4--4--4--4--|--4--4--4--4--4--4--4--4--|
--4--4--4--4--4--4--4--4--|--4--4--4--4--4--4--4--4--|


--------------------------------------------------|
--------------------------------------------------|
--------------------------------------------------|
--------------------------------------------------|
--5-5-5-5-5-5-5-5-5-5-5-5-5-5-5-5-5-5-4-4-4-4-4-4-|
--------------------------------------------------|


--------------------------------------------------|
--------------------------------------------------|
--------------------------------------------------|
--------------------------------------5-5-5-5-5-5-|
--5-5-5-5-5-5-5-5-5-5-5-5-5-5-5-5-5-5-------------|
--------------------------------------------------|


--------------------------------------------------|
--------------------------------------------------|
--------------------------------------------------|
--4-4-4-4-4-4-4-4-4-4-4-4-4-4-4-4-4-4-4-4-4-4-4-4-|
--------------------------------------------------|
--------------------------------------------------|


--------------------------------------------------|
--------------------------------------------------|
--------------------------------------------------|
--------------------------------------------------|
--5-5-5-5-5-5-4-4-4-4-4-4-4-4-4-4-4-4-2-2-2-2-2-2-|
--------------------------------------------------|


--------------------------------------------------|
--------------------------------------------------|
--------------------------------------------------|
--------------------------------------------------|
--4-4-4-4-4-4-4-4-4-4-4-4-4-4-4-4-4-4-2-2-2-2-2-2-|
--------------------------------------------------|


--------------------------------------------------|
--------------------------------------------------|
--------------------------------------------------|
--------------------------------------------------|
--4-4-4-4-4-4-4-4-4-4-4-4-4-4-4-4-4-4-7-7-7-7-7-7-|
--------------------------------------------------|


--------------------------------------------------|
--------------------------------------------------|
--------------------------------------------------|
--------------------------------------------------|
--5-5-5-5-5-5-5-5-5-5-5-5-5-5-5-5-5-5-5-5-5-5-5-5-|
--------------------------------------------------|


--------------------------------------------------|
--------------------------------------------------|
--------------------------------------------------|
--------------------------------------------------|
--4-4-4-4-4-4-2-2-2-2-2-2-2-2-2-2-2-2-2-2-2-2-2-2-|
--------------------------------------------------|


--------------------------------------------------|
--------------------------------------------------|
--------------------------------------------------|
--------------------------------------------------|
--5-5-5-5-5-5-5-5-5-5-5-5-5-5-5-5-5-5-4-4-4-4-4-4-|
--------------------------------------------------|


--------------------------------------------------|
--------------------------------------------------|
--------------------------------------------------|
--------------------------------------5-5-5-5-5-5-|
--5-5-5-5-5-5-5-5-5-5-5-5-5-5-5-5-5-5-------------|
--------------------------------------------------|


--------------------------------------------------|
--------------------------------------------------|
--------------------------------------------------|
--4-4-4-4-4-4-4-4-4-4-4-4-4-4-4-4-4-4-4-4-4-4-4-4-|
--------------------------------------------------|
--------------------------------------------------|


--------------------------------------------------|
--------------------------------------------------|
--------------------------------------------------|
--------------------------------------------------|
--5-5-5-5-5-5-4-4-4-4-4-4-4-4-4-4-4-4-2-2-2-2-2-2-|
--------------------------------------------------|


--------------------------------------------------|
--------------------------------------------------|
--------------------------------------------------|
--------------------------------------------------|
--4-4-4-4-4-4-4-4-4-4-4-4-4-4-4-4-4-4-2-2-2-2-2-2-|
--------------------------------------------------|


--------------------------------------------------|
--------------------------------------------------|
--------------------------------------------------|
--------------------------------------------------|
--4-4-4-4-4-4-4-4-4-4-4-4-4-4-4-4-4-4-7-7-7-7-7-7-|
--------------------------------------------------|


--------------------------------------------------|
--------------------------------------------------|
--------------------------------------------------|
--------------------------------------------------|
--5-5-5-5-5-5-5-5-5-5-5-5-5-5-5-5-5-5-5-5-5-5-5-5-|
--------------------------------------------------|


--------------------------------------------------|
--------------------------------------------------|
--------------------------------------------------|
--------------------------------------------------|
--4-4-4-4-4-4-2-2-2-2-2-2-2-2-2-2-2-2-2-2-2-2-2-2-|
--------------------------------------------------|


--------------------------------------------------|
--------------------------------------------------|
--------------------------------------------------|
--------------------------------------------------|
--5-5-5-5-5-5-5-5-5-5-5-5-5-5-5-5-5-5-4-4-4-4-4-4-|
--------------------------------------------------|


--------------------------------------------------|
--------------------------------------------------|
--------------------------------------------------|
--------------------------------------5-5-5-5-5-5-|
--5-5-5-5-5-5-5-5-5-5-5-5-5-5-5-5-5-5-------------|
--------------------------------------------------|


--------------------------------------------------|
--------------------------------------------------|
--------------------------------------------------|
--4-4-4-4-4-4-4-4-4-4-4-4-4-4-4-4-4-4-4-4-4-4-4-4-|
--------------------------------------------------|
--------------------------------------------------|


--------------------------------------------------|
--------------------------------------------------|
--------------------------------------------------|
--------------------------------------------------|
--5-5-5-5-5-5-4-4-4-4-4-4-4-4-4-4-4-4-2-2-2-2-2-2-|
--------------------------------------------------|


--------------------------------------------------|
--------------------------------------------------|
--------------------------------------------------|
--------------------------------------------------|
--4-4-4-4-4-4-4-4-4-4-4-4-4-4-4-4-4-4-2-2-2-2-2-2-|
--------------------------------------------------|


--------------------------------------------------|
--------------------------------------------------|
--------------------------------------------------|
--------------------------------------------------|
--4-4-4-4-4-4-4-4-4-4-4-4-4-4-4-4-4-4-7-7-7-7-7-7-|
--------------------------------------------------|


--------------------------------------------------|
--------------------------------------------------|
--------------------------------------------------|
--------------------------------------------------|
--5-5-5-5-5-5-5-5-5-5-5-5-5-5-5-5-5-5-5-5-5-5-5-5-|
--------------------------------------------------|


--------------------------------------------------|
--------------------------------------------------|
--------------------------------------------------|
--------------------------------------------------|
--4-4-4-4-4-4-2-2-2-2-2-2-2-2-2-2-2-2-2-2-2-2-2-2-|
--------------------------------------------------|


--------------------------------------------------|
--------------------------------------------------|
--------------------------------------------------|
--------------------------------------------------|
--5-5-5-5-5-5-5-5-5-5-5-5-5-5-5-5-5-5-4-4-4-4-4-4-|
--------------------------------------------------|


--------------------------------------------------|
--------------------------------------------------|
--------------------------------------------------|
--------------------------------------5-5-5-5-5-5-|
--5-5-5-5-5-5-5-5-5-5-5-5-5-5-5-5-5-5-------------|
--------------------------------------------------|


--------------------------------------------------|
--------------------------------------------------|
--------------------------------------------------|
--4-4-4-4-4-4-4-4-4-4-4-4-4-4-4-4-4-4-4-4-4-4-4-4-|
--------------------------------------------------|
--------------------------------------------------|


--------------------------------------------------|
--------------------------------------------------|
--------------------------------------------------|
--------------------------------------------------|
--5-5-5-5-5-5-4-4-4-4-4-4-4-4-4-4-4-4-2-2-2-2-2-2-|
--------------------------------------------------|


--------------------------------------------------|
--------------------------------------------------|
--------------------------------------------------|
--------------------------------------------------|
--4-4-4-4-4-4-4-4-4-4-4-4-4-4-4-4-4-4-2-2-2-2-2-2-|
--------------------------------------------------|


--------------------------------------------------|
--------------------------------------------------|
--------------------------------------------------|
--------------------------------------------------|
--4-4-4-4-4-4-4-4-4-4-4-4-4-4-4-4-4-4-7-7-7-7-7-7-|
--------------------------------------------------|


--------------------------------------------------|
--------------------------------------------------|
--------------------------------------------------|
--------------------------------------------------|
--5-5-5-5-5-5-5-5-5-5-5-5-5-5-5-5-5-5-5-5-5-5-5-5-|
--------------------------------------------------|



--------------------------------------------------|-----------9--------|
--------------------------------------------------|--------------------|
--------------------------------------------------|--------------------|
--------------------------------------------------|--------------------|
--4-4-4-4-4-4-2-2-2-2-2-2-2-2-2-2-2-2-2-2-2-2-2-2-|--------------------|
--------------------------------------------------|--------------------|


|--------------------------|--------------------------|
|--------------------------|--------------------------|
|--------------------------|--------------------------|
|--------------------------|--------------------------|
|--4--4--4--4--4--4--4--4--|--4--4--4--4--4--4--4--4--|
|--2--2--2--2--2--2--2--2--|--2--2--2--2--2--2--2--2--|


--------------------------|--------------------------|
--------------------------|--------------------------|
--------------------------|--------------------------|
--------------------------|--------------------------|
--4--4--4--4--4--4--4--4--|--4--4--4--4--4--4--4--4--|
--2--2--2--2--2--2--2--2--|--2--2--2--2--2--2--2--2--|


--------------------------|--------------------------|
--------------------------|--------------------------|
--------------------------|--------------------------|
--------------------------|--------------------------|
--4--4--4--4--4--4--4--4--|--4--4--4--4--4--4--4--4--|
--4--4--4--4--4--4--4--4--|--4--4--4--4--4--4--4--4--|


--------------------------|--------------------------|
--------------------------|--------------------------|
--------------------------|--------------------------|
--------------------------|--------------------------|
--4--4--4--4--4--4--4--4--|--4--4--4--4--4--4--4--4--|
--4--4--4--4--4--4--4--4--|--4--4--4--4--4--4--4--4--|


--------------------------|--------------------------|
--------------------------|--------------------------|
--------------------------|--------------------------|
--------------------------|--------------------------|
--4--4--4--4--4--4--4--4--|--4--4--4--4--4--4--4--4--|
--2--2--2--2--2--2--2--2--|--2--2--2--2--2--2--2--2--|


--------------------------|--------------------------|
--------------------------|--------------------------|
--------------------------|--------------------------|
--------------------------|--------------------------|
--4--4--4--4--4--4--4--4--|--4--4--4--4--4--4--4--4--|
--2--2--2--2--2--2--2--2--|--2--2--2--2--2--2--2--2--|


--------------------------|--------------------------|
--------------------------|--------------------------|
--------------------------|--------------------------|
--------------------------|--------------------------|
--4--4--4--4--4--4--4--4--|--4--4--4--4--4--4--4--4--|
--4--4--4--4--4--4--4--4--|--4--4--4--4--4--4--4--4--|


--------------------------|--------------------------|----------------------|
--------------------------|--------------------------|----------------------|
--------------------------|--------------------------|----------------------|
--------------------------|--------------------------|--4--------4----4--2--|
--4--4--4--4--4--4--4--4--|--4--4--4--4--4--4--4--4--|--4--------4----4--2--|
--4--4--4--4--4--4--4--4--|--4--4--4--4--4--4--4--4--|--2--------2----2--0--|



-----------------------|--------------------|------------------------|
-----------------------|--------------------|------------------------|
--------2----2---------|--------------------|------------------------|
--4--2--2----2----2----|--6--------6--------|--4--4------4--4--4--2--|
--4--0--0----0----2----|--4--------4--------|--4--4------4--4--4--2--|
--2--0------------0----|--4--------4--------|--2--2------2--2--2--0--|



--------------------|----------------------|----------------------|
--------------------|----------------------|----------------------|
--------------------|----------------------|----------------------|
--2--------2--------|--2--2--2----2--------|----------------------|
--2--------2--------|--2--2--2----2--------|--5--5--5----5--------|
--0--------0--------|--0--0--0----0--------|--5--5--5----5--------|



----------------------|----------------------|-----------------------|
----------------------|----------------------|-----------------------|
----------------------|----------------------|--------2----2---------|
----------------------|--4--------4----4--2--|--4--2--2----2----2----|
--5--2--2----2--------|--4--------4----4--2--|--4--0--0----0----2----|
--5--2--2----2--------|--2--------2----2--0--|--2--0------------0----|



--------------------|------------------------|--------------------|
--------------------|------------------------|--------------------|
--------------------|------------------------|--------------------|
--6--------6--------|--4--4------4--4--4--2--|--2--------2--------|
--4--------4--------|--4--4------4--4--4--2--|--2--------2--------|
--4--------4--------|--2--2------2--2--2--0--|--0--------0--------|



----------------------|----------------------|----------------------|
----------------------|----------------------|----------------------|
----------------------|----------------------|----------------------|
--2--2--2----2--------|----------------------|----------------------|
--2--2--2----2--------|--5--5--5----5--------|--5--2--2----2--------|
--0--0--0----0--------|--5--5--5----5--------|--5--2--2----2--------|



----------------------|-----------------------|--------------------|
----------------------|-----------------------|--------------------|
----------------------|--------2----2---------|--------------------|
--4--------4----4--2--|--4--2--2----2----2----|--6--------6--------|
--4--------4----4--2--|--4--0--0----0----2----|--4--------4--------|
--2--------2----2--0--|--2--0------------0----|--4--------4--------|



------------------------|--------------------|----------------------|
------------------------|--------------------|----------------------|
------------------------|--------------------|----------------------|
--4--4------4--4--4--2--|--2--------2--------|--2--2--2----2--------|
--4--4------4--4--4--2--|--2--------2--------|--2--2--2----2--------|
--2--2------2--2--2--0--|--0--------0--------|--0--0--0----0--------|



----------------------|----------------------|----------------------|
----------------------|----------------------|----------------------|
----------------------|----------------------|----------------------|
----------------------|----------------------|--4--------4----4--2--|
--5--5--5----5--------|--5--2--2----2--------|--4--------4----4--2--|
--5--5--5----5--------|--5--2--2----2--------|--2--------2----2--0--|


 
-----------------------|--------------------|------------------------|
-----------------------|--------------------|------------------------|
--------2----2---------|--------------------|------------------------|
--4--2--2----2----2----|--6--------6--------|--4--4------4--4--4--2--|
--4--0--0----0----2----|--4--------4--------|--4--4------4--4--4--2--|
--2--0------------0----|--4--------4--------|--2--2------2--2--2--0--|



--------------------|----------------------|----------------------|
--------------------|----------------------|----------------------|
--------------------|----------------------|----------------------|
--2--------2--------|--2--2--2----2--------|----------------------|
--2--------2--------|--2--2--2----2--------|--5--5--5----5--------|
--0--------0--------|--0--0--0----0--------|--5--5--5----5--------|


----------------------||
----------------------||
----------------------||
----------------------||
--5--2--2----2--------||
--5--2--2----2--------||


            
            
Suggest correction
Creating personal tab
Creating personal tab
You can edit any tab online and save it as your Personal.

You can edit, replace or remove any tab part or add personal notes – all changes will be seen only by you.

Personal tabs can be accessed anytime from any device, even offline.
Learn more »
Give kudos to tab author, rate the tab!
1 2 3 4 5
comments
print report bad tab
3 comments total.
0 reply
spade_of_jack 10 Feb 05, 2007 06:56 AM

umm.........not right, I know you didnt do it, but the power tab is wrong aswell.

0 reply
Kreuger 802 Feb 11, 2007 01:54 PM

I wasnt really sure of this myself but I wanted -something- to go by.

0 reply
live_fan 501 Mar 01, 2007 02:22 PM

Yeah, it's a little off. Still a decent job by whoever did it. I'm about to start tabbing a shitload of their stuff anyway so I may revisit this one and tab it. A lot of killer tracks came off of this album.

guest
You may want to rate the tab now too:
select rating
Wanna post a correction for this tab? Suggest correction