Oops, an error
Loading. Please wait.

Where Is Your God Tab

version 1
version 1

Whole song

Interactive

4,180 views 1 this week
no commentswrite comment
1 2 3 4 5
worth learning
x 5
add to favorites
launch autoscroll
font size
0
reset
how to read this tab
guitar tuner
Tab Pro tools
  • play this tab
  • loop segment
  • change instrument
  • show fretboard
  • metronome
Autoscroll
slow
fast
+/-
esc
set tempo
stop
Contributor
-------------------------------------------------------------------------------
                            Where Is Your God? - Amon Amarth
-------------------------------------------------------------------------------
Tabbed by:QAAS
Email:hangar666@hotmail.it

Tuning: 7 strings standard

 |Intro                       |guitar 1
e|----------------------------|----------------|
B|----------------------------|----------------|
G|----------------------------|----------------|
D|----------------------------|-repeat-2-times-|
A|----------------------------|----------------|
E|--6-6xxx5-5xxx6-6xxx5-5xxx--|----------------|
B|--4-4xxx3-3xxx4-4xxx3-3xxx--|--400400300300--|
p.m.   ...   ...   ...   ...     ............

 
 |verse -                                                     |pre - chorus
e|---------------|--------------|--------------|--------------|--------------|
b|---------------|--------------|--------------|--------------|--------------|
G|---------------|--------------|--------------|--------------|--------------|
D|-repeat-7-times|--------------|repeat-7-times|repeat-2-times|--------------|
A|---------------|--------------|--------------|--------------|--------------|
E|---------------|-6-6xxx5-5xxx-|--------------|-6-6xxx5-5xxx-|-5-5-5-5-5-5--|
B|--400400300300-|-4-4xxx3-3xxx-|-400400300300-|-4-4xxx3-3xxx-|-3-3-3-3-3-3--|
p.m ............      ...   ...   ............      ...   ...   . . . . . .

 |chorus - play fast
e|-------------------|
b|-------------------|
G|-------------------|x 4
D|-------------------|
A|-------------------|
E|-------5--8--5--7--|
B|--4----------------|

 |bridge - play fast
e|----------------------------------------------|
b|----------------------------------------------|
G|----------------------------------------------|
D|----------------------------------------------|
A|----------------------------------------------|
E|--4--3--4--6--7--6-----4--3--4--6--7--10------|
B|--------------------7---------------------9---|

 |chorus - play fast
e|-------------------|
b|-------------------|
G|-------------------|x 4
D|-------------------|
A|-------------------|
E|-------5--8--5--7--|
B|--4----------------|

 |interlude - play fast
e|-----------------------------------|
b|-----------------------------------|
G|-----------------------------------|x 4
D|-----------------------------------|
A|-----------------------------------|
E|--4--7--4--6-----2--4--7--4--6-----|
B|--------------4-----------------4--|

 |Intro - 
e|----------------------------|
b|----------------------------|
G|----------------------------|
D|----------------------------|
A|----------------------------|
E|--6-6xxx5-5xxx6-6xxx5-5xxx--|
B|--4-4xxx3-3xxx4-4xxx3-3xxx--|

 
 |     repeat 2 times           |     
 |verse                                                       |pre chorus
e|---------------|--------------|--------------|--------------|----------------| 
b|---------------|--------------|--------------|--------------|----------------| 
G|---------------|--------------|--------------|--------------|----------------| 
D|-repeat-7-times|--------------|repeat-7-times|repeat-2-times|----------------| 
A|---------------|--------------|--------------|--------------|----------------| 
E|---------------|-6-6xxx5-5xxx-|--------------|-6-6xxx5-5xxx-|-5-5-5-5-5-5-5--| 
B|--400400300300-|-4-4xxx3-3xxx-|-400400300300-|-4-4xxx3-3xxx-|-3-3-3-3-3-3-3--| 
p.m ............      ...   ...   ............      ...   ...   . . . . . . .   

STOP

 |chorus - play fast
e|-------------------|
b|-------------------|
G|-------------------|x 4
D|-------------------|
A|-------------------|
E|-------5--8--5--7--|
B|--4----------------|



 |interlude - play fast
e|-----------------------------------|
b|-----------------------------------|
G|-----------------------------------|x 8
D|-----------------------------------|
A|-----------------------------------|
E|--4--7--4--6-----2--4--7--4--6-----|
B|--------------4-----------------4--|


 |Intro  
e|----------------------------|
b|----------------------------|
G|----------------------------|
D|----------------------------|x 3
A|----------------------------|
E|--6-6xxx5-5xxx6-6xxx5-5xxx--|
B|--4-4xxx3-3xxx4-4xxx3-3xxx--|

 
 |Outro 
e|-----------|
b|-----------|
G|-----------|
D|-----------|
A|-----------|
E|--5-5-5-5--|
B|--3-3-3-3--|
p.m.. . . .




| /  slide up
| \  slide down
| h  hammer-on
| p  pull-off
| ~  vibrato
| +  harmonic
| x  Mute note
===============================================================================
comments
print report bad tab
I want to post or [tab]
guest
You may want to rate the tab now too:
select rating
Please do not post tabs as comments. Select "correction" instead!