Oops, an error
Loading. Please wait.

Where Is Your God Tab

version 2
version 2

Whole song

Interactive

2,012 views 1 this week
no commentswrite comment
1 2 3 4 5
please rate
add to favorites
launch autoscroll
font size
0
reset
how to read this tab
guitar tuner
Tab Pro tools
  • play this tab
  • loop segment
  • change instrument
  • show fretboard
  • metronome
×
Best way to learn
"Where Is Your God"
Autoscroll
slow
fast
+/-
esc
set tempo
stop
Contributor
Difficulty
Tuning
intermediate
B E A D F# B
Song:	"Where is Your God?"
Artist:	Amon Amarth
Album: 	Twilight of the Thunder God

B Standard tuning

B E A D F# B

Tabbed by Darkling83

. = Palm Mute
x = staccato stop. hit the note than stop it
' = tremolo pick
/ = slide
h = hammer on

B E A D F# B

Intro Riff (Both Guitars)
|-------------------------------------|
|-------------------------------------|
|-------------------------------------|
|-------------------------------------|
|---6-6-----5-5-----6-6-----5-5-------|
|---4-4-000-3-3-000-4-4-000-3-3-000---|
        ...     ...     ...     ...

Bridging Riff (Guitar 1 only)
|---------------------------------------------------|
|---------------------------------------------------|
|---------------------------------------------------|
|---------------------------------------------------|
|---------------------------------------------------|
|--3-0-0-3-0-0-3-0-0-3-0-0-3-0-0-3-0-0-3-0-0-3-0-0--|
   . . . . . . . . . . . . . . . . . . . . . . . .


Verse Riff x4 (Both guitars)
[[one guitar applies an effect though on repeat 3 and 4 - this section is played fast]]
|---------------------------------------------------|
|---------------------------------------------------|
|---------------------------------------------------|
|---------------------------------------------------|
|---------------------------------------------------|
|--3-0-0-3-0-0-3-0-0-3-0-0-3-0-0-3-0-0-3-0-0-3-0-0--|
   . . . . . . . . . . . . . . . . . . . . . . . .

				                                Ending 1, 3         Ending 2, 4
|---------------------------|---------------------------|----------------------|
|---------------------------|---------------------------|----------------------|
|---------------------------|---------------------------|----------------------|
|---------------------------|---------------------------|----------------------|
|---------------------------|---------------------------|---6-6-----5-5--------|
|--4-3-0-4-3-0-4-3-0-4-3-0--|--4-3-0-4-3-0-4-3-0-4-3-0--|---4-4-000-3-3-000----|
   . . . . . . . . . . . .     . . . . . . . . . . . .          ...     ...

Bridge into next riff (Continuation of verse ending 4)
|----------------------------------|
|----------------------------------|
|----------------------------------|
|----------------------------------|
|---6-6-----5-5------2-2-2-2-2-2---|
|---4-4-000-3-3-000--0-0-0-0-0-0---|
        ...     ...  . . . . . .

pre Chorus x4 (Both Guitars)
|-----------------------------|
|-----------------------------|
|-----------------------------|
|-----------------------------|
|-------5'-8'-5'-7'-----------|
|--0'-------------------------|

Refrain
Guitar 1
|-----------------------------------------------------------------|
|-----------------------------------------------------------------|
|-----------------------------------------------------7'----------|
|--6'---5'-6'-8'-9'-8'---5'--------6'---5'-6'-8'-9'--------5'-----|
|-----------------------------------------------------------------|
|-----------------------------------------------------------------|

Guitar 2
|-----------------------------------------------------------------|
|-----------------------------------------------------------------|
|-----------------------------------------------------------------|
|-----------------------------------------------------------------|
|-----------------------------------------------------5'----------|
|--4'------------0'------3'--------4'------------7'--------3'-----|

pre Chorus x4 (Both Guitars)

Chorus
***NOTE***
This might look strange but guitar 1 loops the same trem riff 4 times
while the 2nd guitar plays a continuosly changing part over the entire chorus
**********
Guitar 1 (I recommend pinky finger on the 11's, index on the 8 and you'll get it)
|--------------------------------------------------------|
|--------------------------------------------------------|
|--------9'----8'-------------------9'-----8'------------|
|--11'-----11'-----------9'--11'-------11'---------------|
|-----------------11'----------------------------11'-----|
|--------------------------------------------------------|

Guitar 2 (you can play the 7' as a 2' on the A if you prefer)
|--------------------------------------------------------|
|--------------------------------------------------------|
|--------------------------------------------------------|
|--------------------------------------------------------|
|--4'----------------------------------------------------|
|------------------------------------------7'------------|

|--------------------------------------------------------|
|--------------------------------------------------------|
|--------------------------------------------------------|
|--------------------------------------------------------|
|--------------------------------------------------------|
|--5'--------------------------------------4'------------|

|--------------------------------------------------------|
|--------------------------------------------------------|
|--------------------------------------------------------|
|--------------------------------------------------------|
|--------------------------------------------------------|
|--2'--------------------------------------4'------------|

|--------------------------------------------------------|
|--------------------------------------------------------|
|--------------------------------------------------------|
|--------------------------------------------------------|
|--------------------------------------------------------|
|--5'--------------------------------------7'------------|

Bridging riff
Both Guitars
|-------------------------------------|
|-------------------------------------|
|-------------------------------------|
|-------------------------------------|
|---6-6-----5-5-----6-6-----5-5-------|
|---4-4-000-3-3-000-4-4-000-3-3-000---|
        ...     ...     ...     ...

Verse Riff x6 (Both guitars)
|---------------------------------------------------|
|---------------------------------------------------|
|---------------------------------------------------|
|---------------------------------------------------|
|---------------------------------------------------|
|--3-0-0-3-0-0-3-0-0-3-0-0-3-0-0-3-0-0-3-0-0-3-0-0--|
   . . . . . . . . . . . . . . . . . . . . . . . .

	             Ending 1, 3, 5	           Ending 2, 4, 6
|---------------------------|---------------------------|----------------------|
|---------------------------|---------------------------|----------------------|
|---------------------------|---------------------------|----------------------|
|---------------------------|---------------------------|----------------------|
|---------------------------|---------------------------|---6-6-----5-5--------|
|--4-3-0-4-3-0-4-3-0-4-3-0--|--4-3-0-4-3-0-4-3-0-4-3-0--|---4-4-000-3-3-000----|
   . . . . . . . . . . . .     . . . . . . . . . . . .          ...     ...

Bridge into next riff (Continuation of verse ending 4)
|-------------------------------------|
|-------------------------------------|
|-------------------------------------|
|-------------------------------------|
|---6-6-----5-5------2-2-2-2-2-2-2-x--|
|---4-4-000-3-3-000--0-0-0-0-0-0-0-x--| (All stop at the end of this!)
        ...     ...  . . . . . . .

pre Chorus x4 (Both Guitars)
|-----------------------------|
|-----------------------------|
|-----------------------------|
|-----------------------------|
|-------5'-8'-5'-7'-----------|
|--0'-------------------------|

Chorus
Guitar 1 x4
Guitar that long winded section x1

Then the Chorus again, but with a changed 2nd guitar part
Guitar 1
|--------------------------------------------------------|
|--------------------------------------------------------|
|--------9'----8'-------------------9'-----8'------------|
|--11'-----11'-----------9'--11'-------11'---------------|
|-----------------11'----------------------------11'-----|
|--------------------------------------------------------|

Guitar 2
|--------------------------------------------------------|
|--------------------------------------------------------|
|--------------------------------------------------------|
|--------------------------------------------------------|
|--4'----------------------------------------------------|
|--------------------------------------------------------|

|--------------------------------------------------------|
|--------------------------------------------------------|
|--------------------------------------------------------|
|--------------------------------------------------------|
|--7'----------------------------------------------------|
|-----------------------------------------------------4'-|

|--------------------------------------------------------|
|--------------------------------------------------------|
|--------------------------------------------------------|
|--------------------------------------------------------|
|--------------------------------------------------------|
|--5'----------------------------------------------------|

|--------------------------------------------------------|
|--------------------------------------------------------|
|--------------------------------------------------------|
|--------------------------------------------------------|
|--------------------------------------------------------|
|--4'--------------------------------------7'------------|

Ending riff
Both Guitars
|------------------------------------------------------------|
|------------------------------------------------------------|
|------------------------------------------------------------|
|------------------------------------------------------------|
|---6-6-----5-5-----6-6-----5-5-----6-6-----5-5-----2-2-2-2--|
|---4-4-000-3-3-000-4-4-000-3-3-000-4-4-000-3-3-000-0-0-0-0--|
        ...     ...     ...     ...     ...     ... . . . .
comments
We did not receive enough feedback on this tab! Please rate:
print report bad tab
1 2 3 4 5
I want to post or [tab]
guest
You may want to rate the tab now too:
select rating
Please do not post tabs as comments. Select "correction" instead!