Oops, an error
Loading. Please wait.

Where Silent Gods Stand Guard Tab

version 1
version 1

Whole song

Interactive

5,499 views 6 this week
4 commentsread comments
1 2 3 4 5
accurate
x 5
add to favorites
launch autoscroll
font size
0
reset
how to read this tab
guitar tuner
Tab Pro tools
  • play this tab
  • loop segment
  • change instrument
  • show fretboard
  • metronome
×
Best way to learn
"Where Silent Gods Stand Guard"
Autoscroll
slow
fast
+/-
esc
set tempo
stop
Contributor
Difficulty
Tabbers playing skills
intermediate
intermediate ++
This is my first tab I've written but it seems completely accurate to me.  (NOTE:  In 
to play Amon Amarth you need a viking helmet, full grown beard, skull with mead in it, 
of your enemies, oh and heavy distortion) ;)

*  - palm mute           /  - slide up to
\  - slide down to       ~  - vibrato
h  - hammer on           b  - Bend
p  - pull off            Suffixes for bend
t  - tap                 f  - full bend    h - half bend
ph - pinched harmonic    q  - quarter bend t - tap bend
(.)- see comment         ^  - Hold bend    r release bend
x  - Stuccatto           ~  - vibrato bend
,  - slight palm mute    () - ghost note, sustained note
"  - tremolo note        <> - Trill
PS - Pick Slide          NH - Natural Harmonic

|----------------------------------------|
|----------------------------------------|
|----------------------------------------|
|-----------4-6------4-------------------|
|--------------------------6---------6---|
|------------------------4---------4-----|

A.2 (played only in intro)
|----------------------------------------|
|----------------------------------------|
|--------------------4-------------------|
|-2------------------4--6---------6------|
|-2------------------2--6---------6------|
|-0---------------------4---------4------|


AA.2
|----------------------------------------|
|----------------------------------------|
|----------------------------------------|
|----------------------------------------|
|-22--2---22--2-----4--66-6--------66-6--|
|-00--0---00--0-----2--44-4--------44-4--|

B.1
|-------(3x)----------|---------------------|
|---------------------|---------------------|
|---------------------|---------------------|
|-22-2-22-2-22-2-22-2-|-66-6-66-6-66-6-66-6-|
|-22-2-22-2-22-2-22-2-|-66-6-66-6-66-6-66-6-|
|-00-0-00-0-00-0-00-0-|-44-4-44-4-44-4-44-4-|
  **   **   **   **     **   **   **   **

C.1
|----------------------|
|----------------------|
|----------------------|
|-6”--4"-6”---9”-7”-6”-|
|----------------------|
|----------------------|

D.1
|------------------------------------------------------------------------|
|------------------------------------------------------------------------|
|------------------------------------------------------------------------|
|-4-6---6-7---4-6------------------------4-6---6-7---4-6-----------------|
|-----4-----4------4-4-4-4-4-4-4-2-2-2-2---------------------------------|
|--------------------------------------------0-----0-----0-0-0-0-0-0-0-0-|
      *     *      * * * * * * * * * * *     *     *     * * * * * * * *

---------------------------------------|
---------------------------------------|
---------4---4-6------------6---6-8----|
-6-7-4-6---6-----4”—8-9-6-8---8-----6--|
---------------------------------------|
---------------------------------------|

E.1
|------------------------------|
|------------------------------|
|-8-8--8-8-8-8-8-8-8-8-8-8-8-8-|
|-6-6--6-6-6-6-6-6-6-6-6-6-6-6-|
|------------------------------|
|------------------------------|
       * * * * * * * * * * * *

F.1
|----------(2x)----------------|------------------------------|
|------------------------------|------------------------------|
|------------------------------|------------------------------|
|------6-9-8-9-6-8-9-8h9p8p6---|------6-7--4-6----------------|
|------------------------------|------------------------------|
|------------------------------|------------------------------|

F.2
|-------------(2x)-------------|-------------(2x)-------------|
|------------------------------|------------------------------|
|------------------------------|------------------------------|
|-6-6--6-6-6-6-6-6-6-6-6-6-6-6-|-2-2--2-2-2-2-2-2-2-2-2-2-2-2-|
|-6-6--6-6-6-6-6-6-6-6-6-6-6-6-|-2-2--2-2-2-2-2-2-2-2-2-2-2-2-|
|-4-4--4-4-4-4-4-4-4-4-4-4-4-4-|-0-0--0-0-0-0-0-0-0-0-0-0-0-0-|
       * * * * * * * * * * * *        * * * * * * * * * * * *

Solo
|-12-12-12-12----------12-12-12-12---------------------------------------|
|-------------------------------------13-15--------13--------------------|
|-------------13-13-13-------------14--------11-13-----11-13----13-14-11-|
|------------------------------------------------------------------------|
|------------------------------------------------------------------------|
|------------------------------------------------------------------------|

--------------------------------------------------------------------12-15-|
----11----11—13------13-15-15-15----13-15--------13----15-15-----13-------|
-13----13--------13-----------------------13-15-----13--------------------|
--------------------------------------------------------------------------|
--------------------------------------------------------------------------|
--------------------------------------------------------------------------|

--------------------------------------------------------------------------|
-11-13----13-15--------13------------16-/18-16-18-----14-16-16-16---16-17-|
-----------------11-13----11-13-13----------------16----------------------|
--------------------------------------------------------------------------|
--------------------------------------------------------------------------|
--------------------------------------------------------------------------|

----16-17—--14-16-----------14-16---/19—18-16h18p16-----14---|
-13----------------------------------------------------------|
-------------------------------------------------------------|
--------------------------This part behind riff A.1----------|
-------------------------------------------------------------|
-------------------------------------------------------------|

Behind Solo
|-------------------------------------------------------------------------|
|-------------------------------------------------------------------------|
|-------------------------------------------4-4-4-4-4-4-4-4-6-6-6-6-6-6-6-|
|-4-4-4-4-4-4-4-4-4-4-6-6-6-6-6-6-6-6-6-6-6-4-4-4-4-4-4-4-4-6-6-6-6-6-6-6-|
|-4-4-4-4-4-4-4-4-4-4-6-6-6-6-6-6-6-6-6-6-6-2-2-2-2-2-2-2-2-4-4-4-4-4-4-4-|
|-2-2-2-2-2-2-2-2-2-2-4-4-4-4-4-4-4-4-4-4-4-------------------------------|
comments
print report bad tab
4 comments total. Showing first comments.
0 reply
Blood_Steel wrote on February 18 2009, 01:07 pm

so is this in B tuning B E A D F# B or is it in drop B tuning B F# B E G# C#

0 reply
frantic_saint wrote on May 27 2009, 11:15 am

Normal BEADF#B

0 reply
th_brck_rcks wrote on August 5 2009, 04:53 pm

sounds great man

I want to post or [tab]
guest
You may want to rate the tab now too:
select rating
Please do not post tabs as comments. Select "correction" instead!