Oops, an error
Loading. Please wait.

Where Silent Gods Stand Guard Tab

version 2
version 2

Whole song

Interactive

2,445 views 3 this week
no commentswrite comment
1 2 3 4 5
accurate
x 5
add to favorites
launch autoscroll
font size
0
reset
how to read this tab
guitar tuner
Autoscroll
slow
fast
+/-
esc
set tempo
stop
Help us to improve Ultimate-Guitar.com Take our survey!
×
Author
Difficulty
Tuning
intermediate
B F# B E G# C#
--------------------------------------------------------------------------------------------------
                       Where Silent Gods Stand Guard by Amon Amarth
--------------------------------------------------------------------------------------------------

Tabbed by th_brck_rcks
Tuning: Drop B (B-F#-B-E-G#-C#)

|--------------------------|
|--------------------------|
|--------------------------|
|-4---2-4--2---------------|
|----------------4-----4---|
|--------------4-----4-----|-_
|                          | _-X4
|--------------------------|-
|--------------------------|
|--------------------------|
|----------4---------------|
|-0--------2--4-----4------|
|-0-----------4-----4------|


(with the top first riff)
|-------------------------------|
|-------------------------------|-_
|-------------------------------| _-X4
|-------------------------------|-
|-00-0---00-0---2--44-4---44-4--|
|-00-0---00-0---2--44-4---44-4--|

X3
|-----------------|-----------------|
|-----------------|-----------------|
|-----------------|-----------------|
|-----------------|-----------------|-_
|---0---0---0---0-|---2---4---4---4-| _-X2
|-000-000-000-000-|-222-444-444-444-|-
| ++  ++  ++  ++    ++  ++  ++  ++  |


|--------------------------|
|--------------------------|
|--------------------------|
|-4---2-4--2---------------|
|----------------4-----4---|
|--------------4-----4-----|-_
|                          | _-X4
|--------------------------|-
|--------------------------|
|--------------------------|
|----------4---------------|
|-0--------2--4-----4------|
|-0-----------4-----4------|


X3
|-----------------|-----------------|
|-----------------|-----------------|
|-----------------|-----------------|
|-----------------|-----------------|-_
|---0---0---0---0-|---2---4---4---4-| _-X2
|-000-000-000-000-|-222-444-444-444-|-
| ++  ++  ++  ++    ++  ++  ++  ++  |

|-------------------|
|-------------------|
|-------------------|-_
|-4--2-4---7-6-4--2-| _-X4
|-------------------|-
|-------------------|
| _  _ _   _ _ _  _ |

|------------------------------------------------------------------|
|------------------------------------------------------------------|
|------------------------------------------------------------------|
|-2-4---4-5---2-4------------------2-4---4-5---2-4-----------------|
|-----2-----2------2-2-2-2-0-0-0-0---------------------------------|
|--------------------------------------0-----0-----0-0-0-0-0-0-0-0-|
|     +     +      + + + + + + + +     +     +     + + + + + + + + |

|---------------------------------------|
|---------------------------------------|
|---------2---2-4------------4---4-6----|
|-4-5-2-4---4-----2-—6-7-4-6---6-----4--|
|---------------------------------------|
|---------------------------------------|
|                 _                  _  |

|------------------------------|
|------------------------------|
|-6-6--6-6-6-6-6-6-6-6-6-6-6-6-|-_
|-4-4--4-4-4-4-4-4-4-4-4-4-4-4-| _-X2
|------------------------------|-
|------------------------------|
|      + + + + + + + + + + + + |


|------------------------------|------------------------------|
|------------------------------|------------------------------|
|------------------------------|------------------------------|
|--------4-7-6-7-4-6-7-6h7p6p4-|-------4-5--2-4---------------|
|------------------------------|------------------------------|
|------------------------------|------------------------------|
|                              |                              |
|X2                            |X2                            |
|------------------------------|------------------------------|
|------------------------------|------------------------------|
|------------------------------|------------------------------|
|------------------------------|------------------------------|
|-4-4--4-4-4-4-4-4-4-4-4-4-4-4-|-0-0--0-0-0-0-0-0-0-0-0-0-0-0-|
|-4-4--4-4-4-4-4-4-4-4-4-4-4-4-|-0-0--0-0-0-0-0-0-0-0-0-0-0-0-|
|      + + + + + + + + + + + + |      + + + + + + + + + + + + |

Solo
|-10-10-10-10----------10-10-10-10-----------------------------------|
|-------------------------------------10-12-------12-----------------|
|-------------11-11-11-------------11--------9-11----9-11----11-12-9-|
|--------------------------------------------------------------------|
|--------------------------------------------------------------------|
|--------------------------------------------------------------------|

------------------------------------------------------------------10-12-|
----10----10-12----12-14-14-14----12-14--------12----14-14-----12-------|
-11----11-------11-----------------------11-13----11--------------------|
------------------------------------------------------------------------|
------------------------------------------------------------------------|
------------------------------------------------------------------------|

-------------------------------------------------12-14---14-15----14-15-|
-10-12----12-14------12---------15--17-15-17--12---------------12-------|
----------------9-11----9-11-11-----------------------------------------|
------------------------------------------------------------------------|
------------------------------------------------------------------------|
------------------------------------------------------------------------|

Rhythm for Solo
|-------------------------------------------------------------------------|
|-------------------------------------------------------------------------|
|-------------------------------------------------------------------------|
|-------------------------------------------4-4-4-4-4-4-4-4-6-6-6-6-6-6-6-|
|-2-2-2-2-2-2-2-2-2-2-4-4-4-4-4-4-4-4-4-4-4-2-2-2-2-2-2-2-2-4-4-4-4-4-4-4-|
|-2-2-2-2-2-2-2-2-2-2-4-4-4-4-4-4-4-4-4-4-4-------------------------------|

Part for the Re-Intro
|-----12-14---/17-16-17h16p14-----12-14---12-14---/17-16-17h16p14-----|
|---------------------------------------------------------------------|
|---------------------------------------------------------------------|
|---------------------------------------------------------------------|
|---------------------------------------------------------------------|
|---------------------------------------------------------------------|

Continue the riffs above as u hear them
Im sorry im so lazy with how i put these tabs but i can barely help it

Legend:
Palm Mute-+
Slide Up-/
Hammer On-h
Pull Off-p
Tremelo Picking-_
Suggest correction
comments
print report bad tab
guest
You may want to rate the tab now too:
select rating
Wanna post a correction for this tab? Suggest correction