Oops, an error
Loading. Please wait.

With Oden On Our Side Tab

version 2
version 2

Whole song

Interactive

1,690 views 1 this week
no commentswrite comment
1 2 3 4 5
accurate
x 1
add to favorites
launch autoscroll
font size
0
reset
how to read this tab
guitar tuner
Tab Pro tools
  • play this tab
  • loop segment
  • change instrument
  • show fretboard
  • metronome
Autoscroll
slow
fast
+/-
esc
set tempo
stop
Amon Amarth : With Odin On Our Side
Album : With Odin On Our Side
Tuning B Standard (Low to High) B E A D G B

Guitar 2 may be off or got the wrong set up going but it's as close as I could figure out.


Intro Riff
Guitar 1&2
 P.M.--------|          P.M.-------|          P.M.--------|      P.M.--
|----------------------------------------------------------------------|
|o---------------------------------------------------------------------|
|----------------------------------------------------------------------|
|----------------------------------------------------------------------|
|o-------------777777777-------------1010101010------------5555555-----|
|0-000--0-0-0-----------0-000-0-0-0------------0-000-0-0-0--------7-777|

                           x4
|---------------------------|
---------------------------o|
|---------------------------|
|---------------------------|
|------55555555-9999999999-o|
|7-7-7----------------------|

Verse Riff 1

Guitar 1                                        x12
|---------------------------------------------------|
|o-------------------------------------------------o|
|---------------------------------------------------|
|----------------------7---------7-9-10-9-7-9-7-----|
|o-7-7-7-9-10-9-9-9-10--10-10-10----------------10-o|
|---------------------------------------------------|

Guitar 2                                         x4
|--------------------------------------------------|
|o------------------------------------------------o|
|--------------------------------------------------|
|--2-2-2-2-2-2-2-2-2-2-2-2-2-2--7-9-10-9-7-9-7-5---|
|o-2-2-2-2-2-2-2-2-2-2-2-2-2-2--7-9-10-9-7-9-7-5--o|
|--0-0-0-0-0-0-0-0-0-0-0-0-0-0--5-7-8--7-5-7-5-3---|

(Guitar 2 part under vocals)
|--------------------------------------------------|
|o-------------------------------------------------|
|--------------------------------------------------|
|--------------------------------------------------|
|o-------------------------------------------------|
|--00000000000000000000000000--5-7-8-7-5-7-5-3-----|
                                                 x8
|--------------------------------------------------|
|-------------------------------------------------o|
|--------------------------------------------------|
|--------------------------------------------------|
|-------------------------------------------------o|
|--33333333333355555555555555--5-7-8-7-5-7-5-3-----|


Chorus riff
Guitars 1&2
|-----------------------------------------------------------------------|
|o----------------------------------------------------------------------|
|-----------------------------------------------------------------------|
|-----------------77777777999999999999--------------------77777799999999|
|o7777771010101010--------------------7777777101010101010---------------|
|-----------------------------------------------------------------------|
                                                                      x4
|-----------------------------------------------------------------------|
|----------------------------------------------------------------------o|
|-----------------------------------------------------------------------|
|-------------/1212121212-----------------99999999997777777777----------|
|101010101010------------99999999999999999--------------------99999999-o|
|-----------------------------------------------------------------------|

Repeat Intro Riff Guitars 1&2: 4 times

Bridge
Guitar 1                                              x4
|-------------------------------------------------------|
|o-----------------------------------------------------o|
|-------------------------------------------------------|
|-------------------------7----------7-9-10-9-7-9-7-----|
|o-------7-9-10------9-10---------10----------------10-o|
|--0-0-0-------0-0-0--------0-0-0-----------------------|

Guitar 2                                              x4
|-------------------------------------------------------|
|o-----------------------------------------------------o|
|-------------------------------------------------------|
|--2-2-2-------2-2-2--------2-2-2-------2-2-2-2-2-2-2---|
|o-2-2-2-------2-2-2--------2-2-2-------2-2-2-2-2-2-2--o|
|--0-0-0-------0-0-0--------0-0-0-------0-0-0-0-0-0-0---|

Repeat Verse Ruiff 1: 8 times

Guitar 1&2 Verse Riff 3                                                  x4
|--------------------------------------------------------------------------|
|o------------------------------------------------------------------------o|
|--------------------------------------------------------------------------|
|----------10-9-7----------10-9-7---------------------------10-9-7-5-7-5---|
|o-------------------------------99999999999910101010101010------------10-o|
|-000000000-------000000000------------------------------------------------|


Guitar 1 Riff C
|--------------------------------------------------------------------------|
|o-------------------------------------------------------------------------|
|--------------------------------------------------------------------------|
|---------------------101010101010121212121212---------------------10101010|
|o-101010101313131313-----------------------1010101010101313131313--------|
|--------------------------------------------------------------------------|

|--------------------------------------------------------------------------|
|--------------------------------------------------------------------------|
|--------------------------------------------------------------------------|
|-10101212121212----------/151515151515------------------------121212121210|
|--------------1313131313-------------121212121212121212121212-------------|
|--------------------------------------------------------------------------|
                        x4
|-------------------------|
|------------------------o|
|-------------------------|
|1010101010---------------|
|----------101010101010--o|
|-------------------------|

Guitar 2                                                              x4
|-----------------------------------------------------------------------|
|o----------------------------------------------------------------------|
|-----------------------------------------------------------------------|
|--5-5-55-5-------------5-5-55-5-----------10------------3--------------|
|o-5-5-55-5-------------5-5-55-5-----------10------------3--------------|
|--3-3-33-3-------------3-3-33-3-----------8-------------1--------------|

Repeat Chorus Riff: 4 times

Guitars 1&2 (Ending)
|----------------|
|----------------|
|----------------|
|-------------2--|
|-------------2--|
|-0-000-0-0-0-0--|

I will add the rest of the With Odin On Our Side Album later. Next song is Asator. AMON AMARTH \m/
comments
We did not receive enough feedback on this tab! Please rate:
print report bad tab
1 2 3 4 5
I want to post or [tab]
guest
You may want to rate the tab now too:
select rating
Please do not post tabs as comments. Select "correction" instead!