Oops, an error
Loading. Please wait.

Beginning Of Time bass

28 views 1 this week
no commentswrite comment
1 2 3 4 5
3 more votes to show rating
add to favorites
×
Save as Personal and add changes to this tab that will be seen only by you. Learn more ›
×
You can save this tab as Personal to edit and correct it or add notes. All changes will be seen only by you. Learn more »
launch autoscroll
font size
0
reset
guitar tuner
edit
Autoscroll
slow
fast
+/-
esc
set tempo
stop
About this tab version
Coming in at the right time is kind of tricky so listen to it a few times before trying to play with the song. Was this info helpful? Yes No
Artist - Amorphis
Album - The Beginning Of Times
Song - Beginning Of Time
Tabed by - Order Of The Dragon
Tuning - Standard (E A D G)
If you have any suggestions reguarding the tabs email at flaviuscuraj@gmail.com
This song can also be played in Drop C tuning (C G C F)playing some of the notes down an octave, but I chose
to tab it for standard tuning

[Intro is guitar only]
[Intro]
G|-----------------|  X3
D|-------------8-10|
A|----8-h10-10-----|
E|8-8--------------|

G|-----------------|
D|-------------8---|
A|----8-h10-10---10|
E|8-8--------------|

G|-----------------|  X3
D|-------------8-10|
A|----8-h10-10-----|
E|8-8--------------|

G|-----------------|
D|-----------------|
A|----8-h10-10-8---|
E|8-8--------------|
 
[Verse]
G|-----------------|  X7
D|----10-10-8------|
A|------------10---|
E|8-8--------------|

G|-----------------|  
D|----10------8----|
A|-------8-10------|
E|8-8--------------|

G|-----------------| X7
D|----10-10-8------|
A|------------10---|
E|8-8--------------|

G|-----------------|  
D|-----------------|
A|----10-8---------|
E|8-8------11-10---|

[Bridge]
G|----------------|-----------------|-----------------|-----------------|
D|----------------|-----------------|-----------------|-----------------|
A|----------------|-----------------|-1-1-1-1-1-1-1-1-|-3-3-3-3-3-3-3-3-|
E|3-3-3-3-3-3-3-3-|-1-1-1-1-1-1-1-1-|-----------------|-----------------|

G|----------------|-----------------|-----------------|-----------------|
D|----------------|-----------------|-----------------|-----------------|
A|----------------|-----------------|-6-6-6-6-6-6-6-6-|-8-8-8-8-8-8-8-8-|
E|3-3-3-3-3-3-3-3-|-1-1-1-1-1-1-1-1-|-----------------|-----------------|

[Intro]
G|-----------------|  X3
D|-------------8-10|
A|----8-h10-10-----|
E|8-8--------------|

G|-----------------|
D|-------------8---|
A|----8-h10-10---10|
E|8-8--------------|

G|-----------------|  X3
D|-------------8-10|
A|----8-h10-10-----|
E|8-8--------------|

G|-----------------|
D|-----------------|
A|----8-h10-10-8---|
E|8-8--------------|

[Verse]
G|-----------------|  X7
D|----10-10-8------|
A|------------10---|
E|8-8--------------|

G|-----------------|  
D|---------8-10----|
A|----8-10---------|
E|8-8--------------|

G|-----------------|  X7
D|----10-10-8------|
A|------------10---|
E|8-8--------------|

G|-----------------|  
D|-----------------|
A|----10-8---------|
E|8-8------11-10---|

[Bridge]
G|----------------|-----------------|-----------------|-----------------|
D|----------------|-----------------|-----------------|-----------------|
A|----------------|-----------------|-1-1-1-1-1-1-1-1-|-3-3-3-3-3-3-3-3-|
E|3-3-3-3-3-3-3-3-|-1-1-1-1-1-1-1-1-|-----------------|-----------------|

G|----------------|-----------------|-----------------|-----------------|
D|----------------|-----------------|-----------------|-----------------|
A|----------------|-----------------|-6-6-6-6-6-6-6-6-|-8-8-8-8-8-8-8-8-|
E|3-3-3-3-3-3-3-3-|-1-1-1-1-1-1-1-1-|-----------------|-----------------|

G|----------------|-----------------|-----------------|-----------------|
D|----------------|-----------------|-----------------|-----------------|
A|----------------|-----------------|-1-1-1-1-1-1-1-1-|-3-3-3-3-3-3-3-3-|
E|3-3-3-3-3-3-3-3-|-1-1-1-1-1-1-1-1-|-----------------|-----------------|

G|----------------|-----------------|-----------------|-----------------|
D|----------------|-----------------|-----------------|-----------------|
A|----------------|-----------------|-6-6-6-6-6-6-6-6-|-8-8-8-8-8-8-8-8-|
E|3-3-3-3-3-3-3-3-|-1-1-1-1-1-1-1-1-|-----------------|-----------------|

[Chorus]
G|---------------|---------------|   X3
D|---------------|---------------|
A|-3-3-3-3-3-3-3-|---------------|
E|---------------|-4-4-4-4-1-1-1-|

G|----------------|----------------|
D|----------------|----------------|
A|6-6-6-6-6-6-6-6-|8-8-8-8-8-8-8-8-|
E|----------------|----------------|

G|---------------|---------------|   X3
D|---------------|---------------|
A|-3-3-3-3-3-3-3-|---------------|
E|---------------|-4-4-4-4-1-1-1-|

G|----------------|----------------|
D|----------------|----------------|
A|6-6-6-6-6-6-6-6-|8-8-8-8-8-8-8-8-|
E|----------------|----------------|

[Bridge]
G|----------------|-----------------|-----------------|-----------------|
D|----------------|-----------------|-----------------|-----------------|
A|----------------|-----------------|-1-1-1-1-1-1-1-1-|-3-3-3-3-3-3-3-3-|
E|3-3-3-3-3-3-3-3-|-1-1-1-1-1-1-1-1-|-----------------|-----------------|

G|----------------|-----------------|-----------------|-----------------|
D|----------------|-----------------|-----------------|-----------------|
A|----------------|-----------------|-6-6-6-6-6-6-6-6-|-8-8-8-8-8-8-8-8-|
E|3-3-3-3-3-3-3-3-|-1-1-1-1-1-1-1-1-|-----------------|-----------------|

G|--|  HOLD
D|--|
A|3-|
E|--|

G|-----------|
D|-----------|
A|7-6-2-2-h3-|
E|-----------|

[Octaves don't need to be played, but it gives it a nice effect]
[Pre-Chorus]
G|----------------|-3-3-3-3-3-3-3-3-|-3-3-3-3-3-3-3-3-|-3-3-3-3-3-3-3-3-|  
D|----------------|-----------------|-----------------|-----------------|
A|3-3-3-3-3-3-3-3-|-3-3-3-3-3-3-3-3-|-3-3-3-3-3-3-3-3-|-3-3-3-3-3-3-3-3-|
E|----------------|-----------------|-----------------|-----------------|

G|7-7-7-7-7-7-7-7-|
D|----------------|
A|7-7-7-7-7-7-7-7-|
E|----------------|

G|9-9-9-9-9-9-9-9-|
D|----------------|
A|9-9-9-9-9-9-9-9-|
E|----------------|

G|2-2-2-2-2-2-2-2-|
D|----------------|
A|2-2-2-2-2-2-2-2-|
E|----------------|

G|3-3-3-3-3-3-3-3-|
D|----------------|
A|3-3-3-3-3-3-3-3-|
E|----------------|

[Chorus]
G|---------------|---------------|   X3
D|-7-7-7-7-7-7-7-|---------------|
A|---------------|-8-8-8-8-5-5-5-|
E|---------------|---------------|

G|----------------|-----------------|
D|----------------|-----------------|
A|3-3-3-3-3-3-3-3-|-5-5-5-5-5-5-5-5-|
E|----------------|-----------------|

G|---------------|---------------|   X3
D|---------------|---------------|
A|-3-3-3-3-3-3-3-|---------------|
E|---------------|-4-4-4-4-1-1-1-|

G|----------------|----------------|
D|----------------|----------------|
A|6-6-6-6-6-6-6-6-|8-8-8-8-8-8-8-8-|
E|----------------|----------------|

G|---------------|---------------|   X3
D|---------------|---------------|
A|-3-3-3-3-3-3-3-|---------------|
E|---------------|-4-4-4-4-1-1-1-|

G|----------------|----------------|
D|----------------|----------------|
A|6-6-6-6-6-6-6-6-|8-8-8-8-8-8-8-8-|
E|----------------|----------------|

G|---------------|---------------|   X3
D|---------------|---------------|
A|-3-3-3-3-3-3-3-|---------------|
E|---------------|-4-4-4-4-1-1-1-|

G|----------------|--------------|
D|----------------|--------------|
A|6-6-6-6-6-6-6-6-|-8-8-8--8-8-8-|
E|----------------|--------------|

G|--|  HOLD TILL GUITAR OUTRO STARTS
D|--|
A|3-|
E|--|
[Outro is guitar only]

Notation - (h) Hammer-ons 

If you have any songs you want to see tabed, email me at flaviuscuraj@gmail.com
Suggest correction
Creating personal tab
Creating personal tab
You can edit any tab online and save it as your Personal.

You can edit, replace or remove any tab part or add personal notes – all changes will be seen only by you.

Personal tabs can be accessed anytime from any device, even offline.
Learn more »
Give kudos to tab author, rate the tab!
1 2 3 4 5
comments
print report bad tab
guest
You may want to rate the tab now too:
select rating
Wanna post a correction for this tab? Suggest correction