Oops, an error
Loading. Please wait.

Black River Tab

version 1
version 1

Intro

Interactive

699 views 1 this week
1 commentread comment
1 2 3 4 5
please rate
add to favorites
launch autoscroll
font size
0
reset
how to read this tab
guitar tuner
Autoscroll
slow
fast
+/-
esc
set tempo
stop
Help us to improve Ultimate-Guitar.com Take our survey!
×
Author
Difficulty
novice
it's the intro to black river by Amorphis
i'm still working on it !



|-----------------------------------------------|
|---------------------6-8-9-8-6---------6-8-----|
|5-7-8-7-5-3----5---------------8-7-7-8-----5---|
|------------5----5-----------------------------|
|-----------------------------------------------|
|-----------------------------------------------|

|-----------------------------------------------|
|-----------------------------------------------|
|5-7-8-7-5-3---5------------------7h8-5---------|
|------------5---3-1---3-6-5--------------------|
|-----------------------------5-----------------|
|-----------------------------------------------|

mail me for questions : dadush642@gmail.com
Suggest correction
Give kudos to tab author, rate the tab!
1 2 3 4 5
comments
print report bad tab
1 comment total.
0 reply
Reaper_Redeemer 20 wrote on March 25 2016, 11:51 am

The part at 01:46: (D tuning)
D----------------------------------------------5---------
A---10-8-6-8-6-----10-8-10-6-8----8-6-5-6----5---8-6-8--- (...)
F-7------------7---------------5-------------------------

guest
You may want to rate the tab now too:
select rating
Wanna post a correction for this tab? Suggest correction