Oops, an error
Loading. Please wait.

Black Winter Day Tab

version 2
version 2

Whole song

Interactive

8,987 views 42 this week
no commentswrite comment
1 2 3 4 5
accurate
x 1
add to favorites
launch autoscroll
font size
0
reset
how to read this tab
guitar tuner
Tab Pro tools
  • play this tab
  • loop segment
  • change instrument
  • show fretboard
  • metronome
Autoscroll
slow
fast
+/-
esc
set tempo
stop
Contributor
Difficulty
intermediate
INTRO
Gtr 2
1|-------------|-------------|
2|-------------|-------------|
3|-------------|-------------|
4|-2-----------|-5-----------|
5|-2---2-2-2-2-|-5---5-5-5-5-|
6|-0---0-0-0-0-|-3---3-3-3-3-|
       * * * *       * * * *

RIFF 1
    Gtr 1
1|| --------------|---------------|---------------|----------------|
2||*--------------|---------------|---------------|--------------8-|
3|| ----------7-9-|-------------7-|---10-9--------|--------7-7h9---|
4|| -7-9-10-7-----|------7--------|-7------7-10-9-|----7-9---------|
5||*--------------|-8-10---8-10---|---------------|-10-------------|
6|| --------------|---------------|---------------|----------------|
 |
 |  Gtr 2
1|| --------------|---------------|---------------|----------------|
2||*--------------|---------------|---------------|----------------|
3|| --------------|---------------|---------------|----------5-----|
4|| -7------7-7---|-3------3-5----|-7------7-7----|-5------5-5-----|
5||*-7------7-7---|-3------3-5----|-7------7-7----|-5------5-3-----|
6|| -5------5-5---|-1------1-3----|-5------5-5----|-3------3-------|


1|--------------|---------------|
2|--------------|---------------|
3|----------7-9-|-------------7-|
4|-7-9-10-7-----|------7--------|
5|--------------|-8-10---8-10---|
6|--------------|---------------|
 |
 |
1|--------------|---------------|
2|--------------|---------------|
3|--------------|---------------|
4|-7------7-7---|-3------3-5----|
5|-7------7-7---|-3------3-5----|
6|-5------5-5---|-1------1-3----|

  1st ending                          2nd ending
1|--------------|-------------- ||    ---------------|-------------|
2|--------------|--------------*||    ---------------|-------------|
3|--------------|-------------- ||    ---------------|-----7-9-7---|
4|--------7-7h9-|p7------------ ||    ---------------|-7-9---------|
5|-7-9-10-------|-----10\9-5~~-*||    -7-9-10-7-9-10-|-------------|
6|--------------|-------------- ||    ---------------|-------------|
 |
 |
1|--------------|-------------- ||    --------------|--------------|
2|--------------|--------------*||    --------------|--------------|
3|--------------|-------------- ||    --------------|--------------|
4|-2------------|-5------------ ||    -2------------|-5------------|
5|-2---2--2-2-2-|-5----5-5-5-5-*||    -2---2--2-2-2-|-5----5-5-5-5-|
6|-0---0--0-0-0-|-3----3-3-3-3- ||    -0---0--0-0-0-|-3----3-3-3-3-|
       *  * * *        * * * *

VERSE
1|| ---------------|---------------|---------------|--------------|
2||*---------------|---------------|---------------|--------------|
3|| ---------------|---------------|---------------|--------------|
4|| -------------7-|---------------|-------------7-|--------------|
5||*---------7-8---|-8-7-----------|---------7-8---|-8-7----------|
6|| -10-8-10-------|-----10-8-10---|-10-8-10-------|-----10-8-5---|
 |
 |
1|| ---------------|---------------|---------------|--------------|
2||*---------------|---------------|---------------|--------------|
3|| -7-------------|-10------------|-7-------------|-5------------|
4|| -7-------------|-10------------|-7-------------|-5------------|
5||*-5-------------|-8-------------|-5-------------|-3------------|
6|| ---------------|---------------|---------------|--------------|

1|---------------|---------------|
2|---------------|---------------|
3|---------------|---------------|
4|-------------7-|---------------|
5|---------7-8---|-8-7-----------|
6|-10-8-10-------|-----10-8-10---|
 |
 |
1|---------------|---------------|
2|---------------|---------------|
3|-7-------------|-10------------|
4|-7-------------|-10------------|
5|-5-------------|-8-------------|
6|---------------|---------------|

  1st ending                         2nd ending
1|--------------|------------- ||    --------------|--------------|
2|--------------|-------------*||    --------------|--------------|
3|--------------|------------- ||    --------------|--------------|
4|--------------|------------- ||    --------------|--------------|
5|------8---7---|-8-----------*||    ------7-------|--------------|
6|-10-----------|------------- ||    -10-------8---|-10-----------|
 |
 |
1|--------------|------------- ||    --------------|--------------|
2|--------------|-------------*||    --------------|--------------|
3|-7----9-------|------------- ||    -7----9-------|--------------|
4|-7----9---10--|-8----------- ||    -7----9---10--|-8------------|
5|-5----7---10--|-8-----------*||    -5----7---10--|-8------------|
6|----------8---|-6----------- ||    ----------8---|-6------------|

PIANO PART
Gtrs 1 & 2
1|| -------------|--------------|-------------|-------------|-------------|
2||*-------------|--------------|-------------|-------------|-------------|
3|| -------------|--------------|-------------|-7-----------|-------------|
4|| -7-----------|-10-----------|-7-----------|-7-----7-7-7-|-7-----------|
5||*-7-----7-7-7-|-10----101010-|-7-----7-7-7-|-5-----5-5-5-|-7-----7-7-7-|
6|| -5-----5-5-5-|-8-----8-8-8--|-5-----5-5-5-|-------------|-5-----5-5-5-|

1|-------------|-------------|------------- ||
2|-------------|-------------|-------------*||
3|-------------|-9-----------|-9----------- ||
4|-7-----------|-9-----9-9-9-|-9-----9-9-9- ||x4
5|-7-----7-7-7-|-7-----7-7-7-|-7-----7-7-7-*||
6|-5-----5-5-5-|-------------|------------- ||

BRIDGE
1|| -------------|--------------|-------------|-------------- ||
2||*-------------|--------------|-------------|--------------*||
3|| -------------|--------------|-------------|-------------- ||
4|| ---8-7-------|-7-8/10-------|-------7-----|-------------- ||x4
5||*-5-----8-5---|--------------|-5-7-8---5---|-7-8/10-------*||
6|| -------------|--------------|-------------|-------------- ||
 |
 |
1|| -------------|--------------|-------------|-------------- ||
2||*-------------|--------------|-------------|--------------*||
3|| -7-----------|-7---5--------|-7-----------|-7---8-------- ||
4|| -7-------7-7-|-7---5--------|-7-------7-7-|-7---8-------- ||x4
5||*-5-------5-5-|-5---3--------|-5-------5-5-|-5---6--------*||
6|| -------------|--------------|-------------|-------------- ||
             * *                          * *

PIANO SOLO
Gtrs 1 & 2 (play same thing from PIANO PART)

RIFF 1
VERSE
VERSE (last measure is slower)

OUTRO
1|-------------|--------------|-------------|--------------|
2|-------------|--------------|-------------|--------------|
3|-------------|--------------|-------------|--------------|
4|-------------|-10-----------|-12----------|--------------|
5|-7-----------|--------------|-------------|--------------|
6|-------------|--------------|-------------|--------------|
 |
 |
1|-------------|--------------|-------------|--------------|
2|-------------|--------------|-------------|--------------|
3|-------------|--------------|-------------|--------------|
4|-7-----------|-10-----------|-12----------|--------------|
5|-7-----------|-10-----------|-12----------|--------------|
6|-5-----------|-8------------|-10----------|--------------|
comments
We did not receive enough feedback on this tab! Please rate:
print report bad tab
1 2 3 4 5
I want to post or [tab]
guest
You may want to rate the tab now too:
select rating
Please do not post tabs as comments. Select "correction" instead!