Oops, an error
Loading. Please wait.

Day Of Your Beliefs Bass Tab

version 1
version 1

Whole song

Interactive

356 views 1 this week
no commentswrite comment
1 2 3 4 5
please rate
add to favorites
launch autoscroll
font size
0
reset
guitar tuner
Tab Pro tools
  • play this tab
  • loop segment
  • change instrument
  • show fretboard
  • metronome
Autoscroll
slow
fast
+/-
esc
set tempo
stop
Contributor
Tuning
D G C F A D
#----------------------------------PLEASE NOTE---------------------------------#
#This file is the author's own work and represents their interpretation of the #
#song. You may only use this file for private study, scholarship, or research. #
#------------------------------------------------------------------------------#

DAY OF YOUR BELIEFS (Bassline)
As recorded by Amorphis

Transcribed by Bolus
	



Gtr I (D G C F) - 'Bass'

 Intro          B
  Moderately Q=115
 4/4
  Gtr I
  Wx17           E E E E E E E E   E E E E E E E E
|-------------||-----------------|-----------------|
|-------------||-----------------|-----------------|
|-------------||-0-0-0-0-0-0-0-0-|-0-0-0-0-0-0-0-0-|
|-------------||-----------------|-----------------|


  E E E E E E E E   E E E E E E E E
|-----------------|-------------------|
|-----------------|-------------------|
|-3-3-3-3---------|-------------------|
|---------3-3-3-3-|-1-1-1-1-0-0-0-0---|


  E E E E E E E E   E E E E E E E E   E E E E E E E E
|-----------------|-----------------|-----------------||
|-----------------|-----------------|-----------------||
|-0-0-0-0-0-0-0-0-|-0-0-0-0-0-0-0-0-|-3-3-3-3---------||
|-----------------|-----------------|---------3-3-3-3-||


 C
  E E E E E E E E   E E E E E E E E   E E E E E E E E   E E E E E E E E
|-----------------|-----------------|-----------------|-----------------|
|-----------------|-----------------|-----------------|-----------------|
|-0-0-0-0-0-0-0-0-|-0-0-0-0-0-0-0-0-|-0-0-0-0-0-0-0-0-|-3-3-3-3---------|
|-----------------|-----------------|-----------------|---------3-3-3-3-|


  E E E E E E E E   E E E E E E E E   E E E E E E E E   E E E E E E E E
|-----------------|-----------------|-----------------|-----------------|
|-----------------|-----------------|-----------------|-----------------|
|-----------------|-0-0-0-0-0-0-0-0-|-0-0-0-0-0-0-0-0-|-3-3-3-3---------|
|-1-1-1-1-0-0-0-0-|-----------------|-----------------|---------3-3-3-3-|


  W          H    H      W
|----------|-----------|------||
|----------|-----------|------||
|----------|-3---------|------||
|-5--------|------3----|-5----||


 D
  Q  E E Q  E E   Q  E E Q  E E   E E E E E E E E   E E E E E E Q
|---------------|---------------|-----------------|----------------|
|---------------|---------------|-----------------|----------------|
|-5--5-3-5--5-3-|-5--5-3-5--5-3-|-----------------|----------------|
|---------------|---------------|-6-6-6-6-6-6-6-6-|-6-6-6-6-6-8-8--|


  Q  E E Q  E E   Q  E E Q  E E   E E E E E E E E   E E E E E E E E
|---------------|---------------|-----------------|-----------------||
|---------------|---------------|-----------------|-----------------||
|-5--5-3-5--5-3-|-5--5-3-5--5-3-|-----------------|-----------------||
|---------------|---------------|-6-6-6-6-6-6-6-6-|-3-3-3-3-3-3-3-3-||


 E
  E E E E E E E E   E E E E E E E E   E E E E E E E E   E E E E E E E E
|-----------------|-----------------|-----------------|-----------------|
|-----------------|-----------------|-----------------|-----------------|
|-0-0-0-0-0-0-0-0-|-0-0-0-0-0-0-0-0-|-3-3-3-3---------|-----------------|
|-----------------|-----------------|---------3-3-3-3-|-1-1-1-1-0-0-0-0-|


  E E E E E E E E   E E E E E E E E   E E E E E E E E   E E E E E E E E
|-----------------|-----------------|-----------------|-----------------||
|-----------------|-----------------|-----------------|-----------------||
|-0-0-0-0-0-0-0-0-|-0-0-0-0-0-0-0-0-|-3-3-3-3---------|-0-0-0-0-7-7-7-7-||
|-----------------|-----------------|---------3-3-3-3-|-----------------||


 F
  E E E E E E E E   E E E E E E E E   E E E E E E E E   E E E E E E E E
|-----------------|-----------------|-----------------|-----------------|
|-----------------|-----------------|-----------------|-----------------|
|-0-0-0-0-0-0-0-0-|-0-0-0-0-0-0-0-0-|-3-3-3-3---------|-----------------|
|-----------------|-----------------|---------3-3-3-3-|-1-1-1-1-0-0-0-0-|


  E E E E E E E E   E E E E E E E E   E E E E E E E E   W
|-----------------|-----------------|-----------------|------|
|-----------------|-----------------|-----------------|------|
|-0-0-0-0-0-0-0-0-|-0-0-0-0-0-0-0-0-|-3-3-3-3---------|-0----|
|-----------------|-----------------|---------3-3-3-3-|------|


  H    H      W
|-----------|------||
|-----------|------||
|-3---------|-0----||
|------3----|------||


 G
  Q  E E Q  E E   Q  E E Q  E E   E E E E E E E E   E E E E E E Q
|---------------|---------------|-----------------|----------------|
|---------------|---------------|-----------------|----------------|
|-5--5-3-5--5-3-|-5--5-3-5--5-3-|-----------------|----------------|
|---------------|---------------|-6-6-6-6-6-6-6-6-|-6-6-6-6-6-8-8--|


  Q  E E Q  E E   Q  E E Q  E E   E E E E E E E E   E E E E E E E E
|---------------|---------------|-----------------|-----------------||
|---------------|---------------|-----------------|-----------------||
|-5--5-3-5--5-3-|-5--5-3-5--5-3-|-----------------|-----------------||
|---------------|---------------|-6-6-6-6-6-6-6-6-|-3-3-3-3-3-3-3-3-||


 Solo
  W          +H.      E E   H    H      W
|----------|--------------|-----------|------|
|----------|--------------|-----------|------|
|-0--------|-(0)------2-3-|-3---------|-0----|
|----------|--------------|------3----|------|


  H.      +E  E   E E E Q.   Q    H    H      W
|---------------|---------------|-----------|------|
|-------------5-|---------------|-----------|------|
|-0-------(0)---|-3-3-3-5----3--|-3----5----|-0----|
|---------------|---------------|-----------|------|


  W          +W           H    H      W
|----------|------------|-----------|------|
|----------|------------|-----------|------|
|-0--------|-(0)--------|-3---------|-0----|
|----------|------------|------3----|------|


  W          +W           H    H      H.      E E
|----------|------------|-----------|-------------|
|----------|------------|-----------|-------------|
|-0--------|-(0)--------|-3---------|-0-------0-2-|
|----------|------------|------3----|-------------|


  H    H      W
|-----------|------||
|-----------|------||
|-3---------|-0----||
|------3----|------||


 I
  Q  E E Q  E E   Q  E E Q  E E   E E E E E E E E   E E E E E E Q
|---------------|---------------|-----------------|----------------|
|---------------|---------------|-----------------|----------------|
|-5--5-3-5--5-3-|-5--5-3-5--5-3-|-----------------|----------------|
|---------------|---------------|-6-6-6-6-6-6-6-6-|-6-6-6-6-6-8-8--|


  Q  E E Q  E E   Q  E E Q  E E   E E E E E E E E   E E E E E E E E
|---------------|---------------|-----------------|-----------------|
|---------------|---------------|-----------------|-----------------|
|-5--5-3-5--5-3-|-5--5-3-5--5-3-|-----------------|-----------------|
|---------------|---------------|-6-6-6-6-6-6-6-6-|-3-3-3-3-3-3-3-3-|


  Q  E E Q  E E   Q  E E Q  E E   E E E E E E E E   E E E E E E Q
|---------------|---------------|-----------------|----------------|
|---------------|---------------|-----------------|----------------|
|-5--5-3-5--5-3-|-5--5-3-5--5-3-|-----------------|----------------|
|---------------|---------------|-6-6-6-6-6-6-6-6-|-6-6-6-6-6-8-8--|


  Q  E E Q  E E   Q  E E Q  E E   E E E E E E E E   E E E E E E E E
|---------------|---------------|-----------------|-----------------|
|---------------|---------------|-----------------|-----------------|
|-5--5-3-5--5-3-|-5--5-3-5--5-3-|-----------------|-----------------|
|---------------|---------------|-6-6-6-6-6-6-6-6-|-3-3-3-3-3-3-3-3-|


  E E E E E E E E   S S E E S S E E S S E   S S E E S S E E S S E
|-----------------|-----------------------|------------------------||
|-----------------|-----------------------|-3-5-5-5-3-5-5-5-3-5-5--||
|-----------------|-3-5-5-5-3-5-5-5-3-5-5-|------------------------||
|-3-3-3-3-3-3-3-3-|-----------------------|------------------------||


 J
  E E E E E E E E   E E E E E E E E   E E E E E E E E   E E E E E E E E
|-----------------|-----------------|-----------------|------------------|
|-----------------|-----------------|-----------------|------------------|
|-3-3-3-3-3-3-3-3-|-3-3-3-3-3-3-3-3-|-6-6-6-6---------|------------------|
|-----------------|-----------------|---------6-6-6-6-|-4-4-4-4-3-3-3-3--|


  E E E E E E E E   E E E E E E E E   E E E E E E E E   E E E E E E E E
|-----------------|-----------------|-----------------|------------------|
|-----------------|-----------------|-----------------|------------------|
|-3-3-3-3-3-3-3-3-|-3-3-3-3-3-3-3-3-|-6-6-6-6---------|------------------|
|-----------------|-----------------|---------6-6-6-6-|-4-4-4-4-3-3-3-3--|


  E E E E E E E E   E E E E E E E E   E E E E E E E E   E E E E E E E E
|-----------------|-----------------|-----------------|------------------|
|-----------------|-----------------|-----------------|------------------|
|-3-3-3-3-3-3-3-3-|-3-3-3-3-3-3-3-3-|-6-6-6-6---------|------------------|
|-----------------|-----------------|---------6-6-6-6-|-4-4-4-4-3-3-3-3--|


  E E E E E E E E   E E E E E E E E   H    H      W
|-----------------|-----------------|-----------|------|
|-----------------|-----------------|-----------|------|
|-3-3-3-3-3-3-3-3-|-3-3-3-3-3-3-3-3-|-6---------|------|
|-----------------|-----------------|------6----|-8----|


              H.=H       Q=85
  H    H      W          H    H      W
|-----------|----------|-----------|------*|
|-----------|----------|-----------|------*|
|-6---------|----------|-6---------|------*|
|------6----|-8--------|------6----|-8----*|



Duration Legend
---------------
W - whole; H - half; Q - quarter; E - 8th; S - 16th; T - 32nd; X - 64th; a - acciaccatura
+ - note tied to previous; . - note dotted; .. - note double dotted
Uncapitalized letters represent notes that are staccato (1/2 duration)
Irregular groupings are notated above the duration line
Duration letters will always appear directly above the note/fret number it represents the
duration for.  Duration letters with no fret number below them represent rests.  Multi-
bar rests are notated in the form Wxn, where n is the number of bars to rest for.  Low
melody durations appear below the staff

Tablature Legend
----------------
 h   - hammer-on
 p   - pull-off
 b   - bend
 pb  - pre-bend
 r   - bend release (if no number after the r, then release immediately)
 /\  - slide into or out of (from/to "nowhere")
 s   - legato slide
 S   - shift slide
 - natural harmonic
[n]  - artificial harmonic
n(n) - tapped harmonic
 ~   - vibrato
 tr  - trill
 T   - tap
 TP  - trem. picking
 PM  - palm muting
\n/  - tremolo bar dip; n = amount to dip
 \n  - tremolo bar down
 n/  - tremolo bar up
/n\  - tremolo bar inverted dip
 =   - hold bend; also acts as connecting device for hammers/pulls
 <> - volume swell (louder/softer)
 x   - on rhythm slash represents muted slash
 o   - on rhythm slash represents single note slash

Misc Legend
-----------
 |  - bar
||  - double bar
||o - repeat start
o|| - repeat end
*|  - double bar (ending)
 :  - bar (freetime)
 $  - Segno
 &  - Coda
Tempo markers -  = BPM(8/16=s8/s16), where s8 = swing 8ths, s16 = swing 16ths

comments
We did not receive enough feedback on this tab! Please rate:
print report bad tab
1 2 3 4 5
I want to post or [tab]
guest
You may want to rate the tab now too:
select rating
Please do not post tabs as comments. Select "correction" instead!