Oops, an error
Loading. Please wait.

Enigma Tab

4,069 views 3 this week
no commentswrite comment
1 2 3 4 5
1 last vote to show rating
add to favorites
launch autoscroll
font size
0
reset
how to read this tab
guitar tuner
Autoscroll
slow
fast
+/-
esc
set tempo
stop
Help us to improve Ultimate-Guitar.com Take our survey!
×
Author
Hello there !

Here Enigma guitar tab, great acoustic song from the album "Silent Waters"

Intro

D
--2-----------3---2-------3----|
--3--------1/3----3----1/3-----|
--2---------------2------------|
-------------------------------|
-------------------------------|
-------------------------------|


Interlude/outro

Bb C Dm
--6-----5---3--0---1------|
--3-----3-6-3--1---3------|
--3-----3-3-3--0---2------|
--3-----3-3-3--2---0------|
---------------3----------|
--------------------------|


Verse

Dm C
--5----5h8----5----5h8----5----5h8 ---3--|
--6---------8-6---------8-6---------8-5--|
--7-----------7-----------7---------- 5--|
--0-----------0-----------0-----------5--|
--------------------------------------3--|
-----------------------------------------|


Chorus

| F | Am | G | Am | F | Am | G | G | etc.

(regular 1st position chords, but play G with the D on the 2nd string:
--3--
--3--
--0--
--0--
--2--
--3--
Suggest correction
Give kudos to tab author, rate the tab!
1 2 3 4 5
comments
print report bad tab
guest
You may want to rate the tab now too:
select rating
Wanna post a correction for this tab? Suggest correction