Oops, an error
Loading. Please wait.

Forgotten Sunrise Tab

version 1
version 1

Whole song

Interactive

883 views 3 this week
no commentswrite comment
1 2 3 4 5
please rate
add to favorites
launch autoscroll
font size
0
reset
how to read this tab
guitar tuner
Tab Pro tools
  • play this tab
  • loop segment
  • change instrument
  • show fretboard
  • metronome
×
Best way to learn
"Forgotten Sunrise"
Autoscroll
slow
fast
+/-
esc
set tempo
stop
Contributor
#----------------------------------PLEASE NOTE---------------------------------#
#This file is the author's own work and represents their interpretation of the #
#song. You may only use this file for private study, scholarship, or research. #
#------------------------------------------------------------------------------#

FORGOTTEN SUNRISE (Bassline)
As recorded by Amorphis
(From the 1994 Album TALES FROM THE THOUSAND LAKES)


Transcribed by Historiae

 Words and Music by Esa Holopainen
Arranged by Amorphis
 

Gtr I (C# F# B E) - 'Bass'


 Intro
  Q.=78
 6/8       12/8
  Gtr I
  H    Q    Q  +Q.   E Q  +Q.   E   Q  +H     Q.   Q.
|---------|-----------------------|---------------------|
|---------|-----------------------|---------------------|
|---------|-9--(9)---9-9--(9)---9-|-7--(7)----7----6----|
|---------|-----------------------|---------------------|


  Q  +Q.   E Q  +Q.   E   E S S E E S S E E E E E E E
|-----------------------|-----------------------------|
|-----------------------|-------------------7-9-9-7---|
|-5--(5)---5-4--(4)---4-|-9-9-9-9-9-9-9-9-9---------9-|
|-----------------------|-----------------------------|


  E S S E E E E E S S E E E E   E S S E E E S S Q.   Q.
|-----------------------------|----------------------------|
|-----------------------------|----------------------------|
|-9-9-9-9-9-9-9-9-9-9-9-9-9-9-|-7-7-7-7-7-7-7-7-7----6-----|
|-----------------------------|----------------------------|


  Q  +Q.   E Q  +Q.   E   E S S E E S S E E S S E E E E
|-----------------------|-------------------------------|
|-----------------------|-------------------------------|
|-5--(5)---5-4--(4)---4-|-9-9-9-9-9-9-9-9-9-9-9-9-9-9-9-|
|-----------------------|-------------------------------|


    Q.=83
    E E E E E E E E E E E E   E E E E E E E E E E E E
||--------------------------|-------------------------|
||o-------------------------|-------------------------|
||o-------------------------|-------------------------|
||--5-5-5-5-5-5-5-5-5-5-5-5-|-3-3-3-3-3-3-3-3-3-2-2-2-|


  E E E E E E E E E E E E   E S S E E S S E E S S E E S S E
|-------------------------|-----------------------------------||
|-------------------------|----------------------------------o||
|-------------------------|----------------------------------o||
|-1-1-1-1-1-1-0-0-0-3-3-3-|-5-5-5-5-5-5-5-5-5-5-5-5-5-5-5-5---||


   Verse I
    S S S S S S S S S S S S S S S S S S S S S S S S
||--------------------------------------------------|
||o-------------------------------------------------|
||o-------------7-7-7-7-7-7-------------------------|
||--5-5-5-5-5-5-------------7-7-7-7-7-7-8-8-8-8-8-8-|


  S S S S S S S S S S S S S S S S S S S S S S S S
|-------------------------------------------------|
|-------------------------------------------------|
|-------------5-5-5-5-5-5-------------------------|
|-3-3-3-3-3-3-------------5-5-5-5-5-5-7-7-7-7-7-7-|


  S S S S S S S S S S S S S S S S S S S S S S S S
|-------------------------------------------------|
|-------------------------------------------------|
|-------------3-3-3-3-3-3-------------------------|
|-1-1-1-1-1-1-------------3-3-3-3-3-3-5-5-5-5-5-5-|


  1.
  S S S S S S S S S S S S S S S S S S S S S S S S
|---------------------------------------------------||
|--------------------------------------------------o||
|-------------------------------------7-7-7-7-7-7--o||
|-0-0-0-0-0-0-3-3-3-3-3-3-7-7-7-7-7-7---------------||


  2.
  S S S S S S S S S S S S S S S S S S E. E.
|-------------------------------------------|
|-------------------------------------------|
|-------------------------------------7-----|
|-0-0-0-0-0-0-3-3-3-3-3-3-7-7-7-7-7-7-------|


          Verse 2
       Q=133
 3/8      4/4
  Q.       Q  Q  Q  E E   +E  Q  E E E Q    8x
|------||---------------|-------------------||
|------||o--------------|------------------o||
|------||o--------------|------------------o||
|------||--0--0--1--0-0-|-(0)-0--0-1-0-3----||


 Interlude
  Q=108
  H    Q  Q    E Q.   Q  Q      H    Q  Q    H    Q  Q    3x
|------------|--------------||-------------|--------------||
|------------|--------------||o------------|-------------o||
|------------|--------------||o------------|-------------o||
|-7----6--3--|---7----6--8--||--7----6--3--|-7----6--8----||


    E E E E E E E E   E E E E E E  E  E  4x     H    Q  Q    H    Q  Q    4x
||------------------|--------------------||-||-------------|--------------||
||o-----------------|-------------------o||-||o------------|-------------o||
||o-----------------|-------------------o||-||o------------|-------------o||
||--9-9-9-9-8-8-5-5-|-9-9-9-9-8-8-10-10--||-||--7----6--3--|-7----6--8----||


   H    Q.   E   +W           H    Q.   E   +W
|--------------|------------|-------------|------------|
|--------------|------------|-------------|------------|
|-10----9----7-|-(7)--------|-------------|------------|
|--------------|------------|-3----5----7-|-(7)--------|


                                         Q=133
                                               PM----------|
  H    Q.   E   +W           H    Q.   E   +E  E E E E E E E
|-------------|------------|-------------|----------------------|
|-------------|------------|-------------|----------------------|
|-------------|------------|-------------|----------------------|
|-3----2----0-|-(0)--------|-3----5----7-|-(7)-0-0-0-0-0-0-0----|


   Bridge
                             PM--------|
                  |-3-|
    E E E E E E E S S S   Q  E E E E E E  7x H    H
||----------------------|-----------------||-----------|
||o---------------------|----------------o||-----------|
||o-7-8---5-7---3-2-3-2-|----------------o||-----------|
||------0-----0---------|-0--0-0-0-0-0-0--||-5----3----|


 Guitar Solo
  Q.=78
 12/8
  Q  +Q.   E Q  +Q.   E   Q  +H     Q.   Q.
|-----------------------|---------------------|
|-----------------------|---------------------|
|-9--(9)---9-9--(9)---9-|-7--(7)----7----6----|
|-----------------------|---------------------|


  Q  +Q.   E Q  +Q.   E   E S S E E S S E E S S E E E E
|-----------------------|---------------------------------|
|-----------------------|---------------------------------|
|-5--(5)---5-4--(4)---4-|-9-9-9-9-9-9-9-9-9-9-9-9-9-9-9---|
|-----------------------|---------------------------------|


  E S S E E E E E S S E E E E   E S S E E E S S Q.   Q.
|-----------------------------|---------------------------|
|-----------------------------|---------------------------|
|-9-9-9-9-9-9-9-9-9-9-9-9-9-9-|-7-7-7-7-7-7-7-7-7----6----|
|-----------------------------|---------------------------|


  Q  +Q.   E Q  +Q.   E   E S S E E S S E E S S E E E E
|-----------------------|-------------------------------|
|-----------------------|-------------------------------|
|-5--(5)---5-4--(4)---4-|-9-9-9-9-9-9-9-9-9-9-9-9-9-9-9-|
|-----------------------|-------------------------------|


    Q.=83
    E E E E E E E E E E E E   E E E E E E E E E E E E
||--------------------------|-------------------------|
||o-------------------------|-------------------------|
||o-------------------------|-------------------------|
||--5-5-5-5-5-5-5-5-5-5-5-5-|-3-3-3-3-3-3-3-3-3-2-2-2-|


  E E E E E E E E E E E E   E S S E E S S E E S S E E S S E
|-------------------------|-----------------------------------||
|-------------------------|----------------------------------o||
|-------------------------|----------------------------------o||
|-1-1-1-1-1-1-0-0-0-3-3-3-|-5-5-5-5-5-5-5-5-5-5-5-5-5-5-5-5---||


   Outro
    S S S S S S S S S S S S S S S S S S S S S S S S
||--------------------------------------------------|
||o-------------------------------------------------|
||o-------------7-7-7-7-7-7-------------------------|
||--5-5-5-5-5-5-------------7-7-7-7-7-7-8-8-8-8-8-8-|


  S S S S S S S S S S S S S S S S S S S S S S S S
|-------------------------------------------------|
|-------------------------------------------------|
|-------------5-5-5-5-5-5-------------------------|
|-3-3-3-3-3-3-------------5-5-5-5-5-5-7-7-7-7-7-7-|


  S S S S S S S S S S S S S S S S S S S S S S S S
|-------------------------------------------------|
|-------------------------------------------------|
|-------------3-3-3-3-3-3-------------------------|
|-1-1-1-1-1-1-------------3-3-3-3-3-3-5-5-5-5-5-5-|


  S S S S S S S S S S S S S S S S S S S S S S S S   6x
|---------------------------------------------------||
|--------------------------------------------------o||
|-------------------------------------7-7-7-7-7-7--o||
|-0-0-0-0-0-0-3-3-3-3-3-3-7-7-7-7-7-7---------------||




--------------------------------------------------------------------------------


Duration Legend
---------------
W - whole; H - half; Q - quarter; E - 8th; S - 16th; T - 32nd; X - 64th; a - acciaccatura
+ - note tied to previous; . - note dotted; .. - note double dotted
Uncapitalized letters represent notes that are staccato (1/2 duration)
Irregular groupings are notated above the duration line
Duration letters will always appear directly above the note/fret number it represents the
duration for.  Duration letters with no fret number below them represent rests.  Multi-
bar rests are notated in the form Wxn, where n is the number of bars to rest for.  Low
melody durations appear below the staff

Tablature Legend
----------------
 h   - hammer-on
 p   - pull-off
 b   - bend
 pb  - pre-bend
 r   - bend release (if no number after the r, then release immediately)
 /\  - slide into or out of (from/to "nowhere")
 s   - legato slide
 S   - shift slide
 - natural harmonic
[n]  - artificial harmonic
n(n) - tapped harmonic
 ~   - vibrato
 tr  - trill
 T   - tap
 TP  - trem. picking
 PM  - palm muting
\n/  - tremolo bar dip; n = amount to dip
 \n  - tremolo bar down
 n/  - tremolo bar up
/n\  - tremolo bar inverted dip
 =   - hold bend; also acts as connecting device for hammers/pulls
 <> - volume swell (louder/softer)
 x   - on rhythm slash represents muted slash
 o   - on rhythm slash represents single note slash

Misc Legend
-----------
 |  - bar
||  - double bar
||o - repeat start
o|| - repeat end
*|  - double bar (ending)
 :  - bar (freetime)
 $  - Segno
 &  - Coda
Tempo markers -  = BPM(8/16=s8/s16), where s8 = swing 8ths, s16 = swing 16ths

comments
We did not receive enough feedback on this tab! Please rate:
print report bad tab
1 2 3 4 5
I want to post or [tab]
guest
You may want to rate the tab now too:
select rating
Please do not post tabs as comments. Select "correction" instead!