Oops, an error
Loading. Please wait.

From The Heaven Of My Heart Tab

version 2
version 2

Whole song

Interactive

5,257 views 3 this week
no commentswrite comment
1 2 3 4 5
please rate
add to favorites
launch autoscroll
font size
0
reset
how to read this tab
guitar tuner
Autoscroll
slow
fast
+/-
esc
set tempo
stop
Help us to improve Ultimate-Guitar.com Take our survey!
×
Author
Song name: From the Heaven of My Heart
Artist: Amorphis
Tuning: DGCFAD

I didn't put the time markers, so you have to listen the song for timing. 

Intro:
 Guitar 1:
|---6------6-------------4------4---------------------------8p6h8-8p6h8-----|
|-6----6-7---6h7p6-4-2-4----4-6---4h6p4-2-1---7----7-6-4-6------------------|
|-------------------------------------------6----6--------------------------|
|---------------------------------------------------------------------------|
|---------------------------------------------------------------------------|
|---------------------------------------------------------------------------|
|
|Guitar 2:
|---------------------------------------------------------------------------|
|---------------------------------------------------------------------------|
|---------------------------------------------------------------------------|
|---------------------------------------------------------------------------|
|-9------5-------------7------3-------------5----2-------------9------------|
|-7------3-------------5------1-------------3----0-------------7------------|


|---6------6-------------4------4-------------------------------------------|
|-6----6-7---6h7p6-4-2-4----4-6---4h6p4-2-1---7----7-6h7p6---4-6------------|
|-------------------------------------------6----6---------6----------------|
|---------------------------------------------------------------------------|
|---------------------------------------------------------------------------|
|---------------------------------------------------------------------------|
|
|
|---------------------------------------------------------------------------|
|---------------------------------------------------------------------------|
|---------------------------------------------------------------------------|
|---------------------------------------------------------------------------|
|-9------5-------------7------3-------------5----2-------------9------------|
|-7------3-------------5------1-------------3----0-------------7------------|


|------------------------------------------------------------------|
|----8----------------8---------------8----------------8-----------|
|-7----------------7------7-5-----7----------------7------7-5------|
|-----------------------------8-------------------------------8----|
|------------------------------------------------------------------|
|------------------------------------------------------------------|
|
|
|------------------------------------------------------------------|
|------------------------------------------------------------------|
|------------------------------------------------------------------|
|------------------------------------------------------------------|
|-7-7-7-7-7-7-7-7-7-7-7-7-5-5-5-5-7-7-7-7-7-7-7-7-7-7-7-7-9-9-9-9--|
|-5-5-5-5-5-5-5-5-5-5-5-5-3-3-3-3-5-5-5-5-5-5-5-5-5-5-5-5-7-7-7-7--|


|-----------------------------------------------5---8--10-10-------|
|---6----------------6---------------6-----------------------------|
|-5---------------5------5-3------5--------------------------------|
|----------------------------6-------------------------------------|
|------------------------------------------------------------------|
|------------------------------------------------------------------|
|
|
|------------------------------------------------------------------|
|------------------------------------------------------------------|
|------------------------------------------------------------------|
|------------------------------------------------------------------|
|-5-5-5-5-5-5-5-5-3-3-3-3-3-3-3-3-7-7-7-7-7-7-7-7-7-7-7-7-5-5-5-5--|
|-3-3-3-3-3-3-3-3-1-1-1-1-1-1-1-1-5-5-5-5-5-5-5-5-5-5-5-5-3-3-3-3--|


|--------------------------------------------------------13----15--|
|---6----------------6---------------6---------------15------------|
|-5---------------5------5-3------5--------------------------------|
|----------------------------6-------------------------------------|
|------------------------------------------------------------------|
|------------------------------------------------------------------|
|
|
|------------------------------------------------------------------|
|------------------------------------------------------------------|
|------------------------------------------------------------------|
|------------------------------------------------------------------|
|-5-5-5-5-5-5-5-5-3-3-3-3-3-3-3-3-7-7-7-7-7-7-7-7-7-7-7-7-5-5-5-5--|
|-3-3-3-3-3-3-3-3-1-1-1-1-1-1-1-1-5-5-5-5-5-5-5-5-5-5-5-5-3-3-3-3--|


Verse, both guitars play the same:                                2x
|------------------------------------------------------------------|
|------------------------------------------------------------------|
|------------------------------------------------------------------|
|------------------------------------------------------------------|
|-7777777777777777999999999999999955555555555555557777777777777777-|
|-5555555555555555777777777777777733333333333333335555555555555555-|
  _____________________________palm_muted_________________________


Chorus, play twice:
|---6------6-------------4------4-------------------------------------------|
|-6----6-7---6h7p6-4-2-4----4-6---4h6p4-2-1---7----7-6h7p6---4-6------------|
|-------------------------------------------6----6---------6----------------|
|---------------------------------------------------------------------------|
|---------------------------------------------------------------------------|
|---------------------------------------------------------------------------|
|
|
|---------------------------------------------------------------------------|
|---------------------------------------------------------------------------|
|---------------------------------------------------------------------------|
|---------------------------------------------------------------------------|
|-9------5-------------7------3-------------5----2-------------9------------|
|-7------3-------------5------1-------------3----0-------------7------------|


Then little piano fill

Then verse again 2 times:
|------------------------------------------------------------------|
|------------------------------------------------------------------|
|------------------------------------------------------------------|
|------------------------------------------------------------------|
|-7777777777777777999999999999999955555555555555557777777777777777-|
|-5555555555555555777777777777777733333333333333335555555555555555-|
  _____________________________palm_muted_________________________


And then chorus 2 times:
|---6------6-------------4------4-------------------------------------------|
|-6----6-7---6h7p6-4-2-4----4-6---4h6p4-2-1---7----7-6h7p6---4-6------------|
|-------------------------------------------6----6---------6----------------|
|---------------------------------------------------------------------------|
|---------------------------------------------------------------------------|
|---------------------------------------------------------------------------|
|
|
|---------------------------------------------------------------------------|
|---------------------------------------------------------------------------|
|---------------------------------------------------------------------------|
|---------------------------------------------------------------------------|
|-9------5-------------7------3-------------5----2-------------9------------|
|-7------3-------------5------1-------------3----0-------------7------------|


Backing riff for solo:                                        2 times
|--------------------------------------------------------------------|
|--------------------------------------------------------------------|
|--------------------------------------------------------------------|
|--------------------------------------------------------------------|
|-999999999955555555777777773333333355555555522222222299999999999999-|
|-777777777733333333555555551111111133333333300000000077777777777777-|


And then Chorus 2 times:
|---6------6-------------4------4-------------------------------------------|
|-6----6-7---6h7p6-4-2-4----4-6---4h6p4-2-1---7----7-6h7p6---4-6------------|
|-------------------------------------------6----6---------6----------------|
|---------------------------------------------------------------------------|
|---------------------------------------------------------------------------|
|---------------------------------------------------------------------------|
|
|
|---------------------------------------------------------------------------|
|---------------------------------------------------------------------------|
|---------------------------------------------------------------------------|
|---------------------------------------------------------------------------|
|-7------4-------------6------3-------------5----2-------------7------------|
|-5------2-------------4------1-------------3----0-------------5------------|


Ending:
|---6------6-------------4------4-------------------------------------------|
|-6----6-7---6h7p6-4-2-4----4-6---4h6p4-2-1---7----7-6h7p6---4-6------------|
|-------------------------------------------6----6--------------------------|
|---------------------------------------------------------------------------|
|---------------------------------------------------------------------------|
|---------------------------------------------------------------------------|
|
|
|---------------------------------------------------------------------------|
|---------------------------------------------------------------------------|
|---------------------------------------------------------------------------|
|---------------------------------------------------------------------------|
|-7------4-------------6------3-------------5----2-------------7------------|
|-5------2-------------4------1-------------3----0-------------5------------|

There it is! Enjoy!
Suggest correction
Give kudos to tab author, rate the tab!
1 2 3 4 5
comments
print report bad tab
guest
You may want to rate the tab now too:
select rating
Wanna post a correction for this tab? Suggest correction