Oops, an error
Loading. Please wait.

House Of Sleep Tab

version 2
version 2

Whole song

Interactive

3,398 views 1 this week
no commentswrite comment
1 2 3 4 5
please rate
add to favorites
launch autoscroll
font size
0
reset
how to read this tab
guitar tuner
Tab Pro tools
  • play this tab
  • loop segment
  • change instrument
  • show fretboard
  • metronome
×
Best way to learn
"House Of Sleep"
Autoscroll
slow
fast
+/-
esc
set tempo
stop
Contributor
----------------------------------------------------------------------------
                           HOUSE OF SLEEP - Amorphis
----------------------------------------------------------------------------

Tabbed by: Tyler Greig

Email: gtheleadguitarist@hotmail.com

| /  slide up
| \  slide down
| h  hammer-on
| p  pull-off
| v  vibrato
| +  harmonic
| x  Mute note
| ~  let ring

Tuning: Drop D (Not sure if it's how the band plays it, but it's how i'm tabbing it.)

I'm not too worried about showing timings very well; listen to the song. This sounds
spot on to me and if it doesn't to you you're either deaf or playing it wrong :P Enjoy.
____________________________________________________________________________


Intro/Chorus
 |Guitar 1
e|-----------------------------------------------------------------|
B|-8-------------------8------------8-------------------8----------|
G|----7----------7--10---7-------------7----------7--10---7--------|
D|------10-8-10------------10-8-7--------10-8-10------------10-8-7-|
A|-----------------------------------------------------------------|
D|-----------------------------------------------------------------|
 |Guitar 2
e|-----------------------------------------------------------------|
B|-----------------------------------------------------------------|
G|-----------------------------------------------------------------|
D|-5-5-5-5-5-5-5-5-5-5-5-5-5-5-5-5--1-1-1-1-1-1-1-1-1-1-1-1-1-1-1-1|
A|-5-5-5-5-5-5-5-5-5-5-5-5-5-5-5-5--1-1-1-1-1-1-1-1-1-1-1-1-1-1-1-1|
D|-5-5-5-5-5-5-5-5-5-5-5-5-5-5-5-5--1-1-1-1-1-1-1-1-1-1-1-1-1-1-1-1|

 |Guitar 1
e|-----------------------------------------------------------------|
B|-8-------------------8----------------6--------------------------|
G|----7----------7--10---7----------5h7-----7--5-------------------|
D|------10-8-10------------10-8-7-----------------8--7-------------|
A|-----------------------------------------------------8-5---------|
D|-----------------------------------------------------------------|
 |Guitar 2
e|-----------------------------------------------------------------|
B|-----------------------------------------------------------------|
G|--------------------------------------------------5-5-5-5-7-7-7-7|
D|-5-5-5-5-5-5-5-5-5-5-5-5-5-5-5-5--3-3-3-3-3-3-3-3-5-5-5-5-7-7-7-7|
A|-5-5-5-5-5-5-5-5-5-5-5-5-5-5-5-5--3-3-3-3-3-3-3-3-3-3-3-3-5-5-5-5|
D|-5-5-5-5-5-5-5-5-5-5-5-5-5-5-5-5--3-3-3-3-3-3-3-3----------------|x2



Verse
 |Both guitars
e|-------------------------------------------------------------------------|
B|-------------------------------------------------------------------------|
G|-------------------------------------------------------------------------|
D|-55555555-33333333-55555555-33333333-55555555-33333333-11111111-00000000-|
A|-55555555-33333333-55555555-33333333-55555555-33333333-11111111-00000000-|
D|-55555555-33333333-55555555-33333333-55555555-33333333-11111111-00000000-|x2
PM ........ ........ ........ ........ ........ ........ ........ .....
              The second time gradually release the palm mute towards the end.


Chorus
Verse
Chorus

Right after chorus, before bridge:
e|----|
B|----|
G|----|
D|-5~-|
A|-5~-|
D|-5~-|


Keyboard solo (arranged for guitar) at 2:42
 |Guitar 1
e|------------------------------------------------------------------|
B|------------------------------------------------------------------|
G|------------------------------------12~----12h14--/15--/17--/19~--|
D|-12~--------------------------12h15-------------------------------|
A|---------12-------------------------------------------------------|
D|----------------12---15-------------------------------------------|
                   
  3:01
e|--17h18-17-------------------------------------------------|
B|-----------18---------------------------14h16p14h16-\10~---|
G|--------------17-15-14~-----12-14-15~----------------------|
D|-------------------------15--------------------------------|
A|-----------------------------------------------------------|
D|-----------------------------------------------------------|

  3:12
e|----------20v-18h20p18p17~----17h18p17p15h17h18p15~---15h17p15p13h15h17--------------|
B|-13-/15~---------------------------------------------------------------15~-----------|
G|----------------------------------------------------------------------------17-15-14-|
D|-------------------------------------------------------------------------------------|
A|-------------------------------------------------------------------------------------|
D|-------------------------------------------------------------------------------------|

*PICKSCRAAAAAAAPE*

Final Chorus (key change)
 |Guitar 1
e|------------------------------------------------------------------|
B|-6------------------6-------------6------------------6------------|
G|----5-----------5-8----5-------------5-----------5-8----5---------|
D|-------8--6--8------------8-6-5---------8--6--8------------8-6-5--|
A|------------------------------------------------------------------|
D|------------------------------------------------------------------|
 |Guitar 2
e|------------------------------------------------------------------|
B|------------------------------------------------------------------|
G|----------------------------------6-6-6-6-6-6-6-6-6-6-6-6-6-6-6-6-|
D|-3-3-3-3-3-3-3-3-3-3-3-3-3-3-3-3--6-6-6-6-6-6-6-6-6-6-6-6-6-6-6-6-|
A|-3-3-3-3-3-3-3-3-3-3-3-3-3-3-3-3--4-4-4-4-4-4-4-4-4-4-4-4-4-4-4-4-|
D|-3-3-3-3-3-3-3-3-3-3-3-3-3-3-3-3----------------------------------|

 |Guitar 1
e|------------------------------------------------------------------|
B|-6------------------6-----------------4---------------------------|
G|----5-----------5-8----5----------3h5-----5--3--------------------|
D|-------8--6--8------------8-6-5-----------------6--5--------------|
A|-----------------------------------------------------6-3----------|
D|------------------------------------------------------------------|
 |Guitar 2
e|------------------------------------------------------------------|
B|------------------------------------------------------------------|
G|--------------------------------------------------3-3-3-3-5-5-5-5-|
D|-3-3-3-3-3-3-3-3-3-3-3-3-3-3-3-3--1-1-1-1-1-1-1-1-3-3-3-3-5-5-5-5-|
A|-3-3-3-3-3-3-3-3-3-3-3-3-3-3-3-3--1-1-1-1-1-1-1-1-1-1-1-1-3-3-3-3-|
D|-3-3-3-3-3-3-3-3-3-3-3-3-3-3-3-3--1-1-1-1-1-1-1-1-----------------|



 |Guitar 1
e|------------------------------------------------------------------|
B|-6------------------6-------------6------------------6------------|
G|----5-----------5-8----5-------------5-----------5-8----5---------|
D|-------8--6--8------------8-6-5---------8--6--8------------8-6-5--|
A|------------------------------------------------------------------|
D|------------------------------------------------------------------|
 |Guitar 2
e|------------------------------------------------------------------|
B|------------------------------------------------------------------|
G|----------------------------------6-6-6-6-6-6-6-6-6-6-6-6-6-6-6-6-|
D|-3-3-3-3-3-3-3-3-3-3-3-3-3-3-3-3--6-6-6-6-6-6-6-6-6-6-6-6-6-6-6-6-|
A|-3-3-3-3-3-3-3-3-3-3-3-3-3-3-3-3--4-4-4-4-4-4-4-4-4-4-4-4-4-4-4-4-|
D|-3-3-3-3-3-3-3-3-3-3-3-3-3-3-3-3----------------------------------|

 |Guitar 1
e|------------------------------------------------------------------|
B|-6------------------6-----------------4---------------------------|
G|----5-----------5-8----5----------3h5-----5--3--------------------|
D|-------8--6--8------------8-6-5-----------------6--5h6p5----------|
A|---------------------------------------------------------6--------|
D|------------------------------------------------------------------|
 |Guitar 2
e|------------------------------------------------------------------|
B|------------------------------------------------------------------|
G|--------------------------------------------------3~------5~------|
D|-3-3-3-3-3-3-3-3-3-3-3-3-3-3-3-3--1~--------------3~------5~------|
A|-3-3-3-3-3-3-3-3-3-3-3-3-3-3-3-3--1~--------------1~------3~------|
D|-3-3-3-3-3-3-3-3-3-3-3-3-3-3-3-3--1~------------------------------|



End with:
 |Guitar 1
e|-----|
B|-----|
G|-----|
D|-----|
A|-/8~-|
D|-----|
 |Guitar 2
e|----|
B|----|
G|----|
D|-3~-|
A|-3~-|
D|-3~-|
============================================================================
comments
We did not receive enough feedback on this tab! Please rate:
print report bad tab
1 2 3 4 5
I want to post or [tab]
guest
You may want to rate the tab now too:
select rating
Please do not post tabs as comments. Select "correction" instead!