Oops, an error
Loading. Please wait.

House Of Sleep Tab

version 3
version 3

Whole song

Interactive

1,167 views 1 this week
no commentswrite comment
1 2 3 4 5
please rate
add to favorites
launch autoscroll
font size
0
reset
how to read this tab
guitar tuner
Autoscroll
slow
fast
+/-
esc
set tempo
stop
Help us to improve Ultimate-Guitar.com Take our survey!
×
#----------------------------------PLEASE NOTE---------------------------------#
#This file is the author's own work and represents their interpretation of the #
#song. You may only use this file for private study, scholarship, or research. #
#------------------------------------------------------------------------------#

HOUSE OF SLEEP (Bassline)
As recorded by Amorphis
(From the 2006 Album ECLIPSE)

Transcribed by hauntedinflames


 Words by Paavo Haavikko Music by Holopainen

 

Gtr I (C G C F) - 'Untitled'


   Intro/Chorus
    Q=130
    $
   4/4
    Gtr I
    E E E E E E E E   E E E E E E E E   E E E E E E E E   E E E E E E E E
||------------------|-----------------|-----------------|-----------------|
||o-----------------|-----------------|-----------------|-----------------|
||o-----------------|-----------------|-----------------|-----------------|
||--7-7-7-7-7-7-7-7-|-7-7-7-7-7-7-7-7-|-3-3-3-3-3-3-3-3-|-3-3-3-3-3-2-2-2-|


                                                               To Coda
  E E E E E E E E   E E E E E E E E   E E E E E E E E   E E E E E E E E
|-----------------|-----------------|-----------------|------------------||
|-----------------|-----------------|-----------------|-----------------o||
|-----------------|-----------------|-----------------|-5-5-5-5-7-7-7-7-o||
|-7-7-7-7-7-7-7-7-|-7-7-7-7-7-7-7-7-|-5-5-5-5-5-5-5-5-|------------------||


   Verse
    E E E E E E E E   E E E E E E E E   E E E E E E E E   E E E E E E E E
||------------------|-----------------|-----------------|------------------|
||o-----------------|-----------------|-----------------|------------------|
||o-----------------|-----------------|-----------------|------------------|
||--7-7-7-7-7-7-7-7-|-5-5-5-5-5-5-5-5-|-7-7-7-7-7-7-7-7-|-5-5-5-5-5-5-5-5--|


  1.
  E E E E E E E E   E E E E E E E E   E E E E E E E E   E E E E E E E E
|-----------------|-----------------|-----------------|------------------||
|-----------------|-----------------|-----------------|-----------------o||
|-----------------|-----------------|-----------------|-----------------o||
|-7-7-7-7-7-7-7-7-|-5-5-5-5-5-5-5-5-|-3-3-3-3-3-3-3-3-|-3-2-2-2-2-2-2-2--||


  2.
                                                          D.S. al Coda
  E E E E E E E E   E E E E E E E E   E E E E E E E E   E E E E E E E E
|-----------------|-----------------|-----------------|-----------------||
|-----------------|-----------------|-----------------|-----------------||
|-----------------|-----------------|-----------------|-----------------||
|-7-7-7-7-7-7-7-7-|-5-5-5-5-5-5-5-5-|-3-3-3-3-3-3-3-3-|-3-2-2-2-2-5-5-5-||


   Verse
    &
    E E E E E E E E   E E E E E E E E   E E E E E E E E   E E E E E E E E
||------------------|-----------------|-----------------|------------------|
||o-----------------|-----------------|-----------------|------------------|
||o-----------------|-----------------|-----------------|------------------|
||--7-7-7-7-7-7-7-7-|-5-5-5-5-5-5-5-5-|-7-7-7-7-7-7-7-7-|-5-5-5-5-5-5-5-5--|


  1.
  E E E E E E E E   E E E E E E E E   E E E E E E E E   E E E E E E E E
|-----------------|-----------------|-----------------|------------------||
|-----------------|-----------------|-----------------|-----------------o||
|-----------------|-----------------|-----------------|-----------------o||
|-7-7-7-7-7-7-7-7-|-5-5-5-5-5-5-5-5-|-3-3-3-3-3-3-3-3-|-3-2-2-2-2-2-2-2--||


  2.
  E E E E E E E E   E E E E E E E E   E E E E E E E E   E E E E E E E E
|-----------------|-----------------|-----------------|-----------------||
|-----------------|-----------------|-----------------|-----------------||
|-----------------|-----------------|-----------------|-----------------||
|-7-7-7-7-7-7-7-7-|-5-5-5-5-5-5-5-5-|-3-3-3-3-3-3-3-3-|-3-2-2-2-2-5-5-5-||


   Chorus
    E E E E E E E E   E E E E E E E E   E E E E E E E E   E E E E E E E E
||------------------|-----------------|-----------------|------------------|
||o-----------------|-----------------|-----------------|------------------|
||o-----------------|-----------------|-----------------|------------------|
||--7-7-7-7-7-7-7-7-|-7-7-7-7-7-7-7-7-|-3-3-3-3-3-3-3-3-|-3-3-3-3-3-2-2-2--|


  E E E E E E E E   E E E E E E E E   E E E E E E E E   E E E E E E E E
|-----------------|-----------------|-----------------|------------------||
|-----------------|-----------------|-----------------|-----------------o||
|-----------------|-----------------|-----------------|-5-5-5-5-7-7-7-7-o||
|-7-7-7-7-7-7-7-7-|-7-7-7-7-7-7-7-7-|-5-5-5-5-5-5-5-5-|------------------||


 Interlude
  W          +W           +W           +H..       E
|----------|------------|------------|--------------|
|----------|------------|------------|--------------|
|----------|------------|------------|--------------|
|-7--------|-(7)--------|-(7)--------|-(7)--------5-|


  W          +W           W          +W
|----------|------------|----------|--------|
|----------|------------|----------|--------|
|----------|------------|----------|--------|
|-7--------|-(7)--------|-5--------|-(5)----|


  W          +W           W          Q.   Q  E E E
|----------|------------|----------|---------------|
|----------|------------|----------|---------------|
|-3--------|-(3)--------|-5--------|-7----5--3-2---|
|----------|------------|----------|-------------5-|


    W          +W           W          +W
||-----------|------------|----------|--------|
||o----------|------------|----------|--------|
||o----------|------------|----------|--------|
||--7--------|-(7)--------|-5--------|-(5)----|


  W          +W           W          +W
|----------|------------|----------|---------||
|----------|------------|----------|--------o||
|-3--------|-(3)--------|-5--------|-(5)----o||
|----------|------------|----------|---------||


   Out-Chorus
    E E E E E E E E   E E E E E E E E   E E E E E E E E   E E E E E E E E
||------------------|-----------------|-----------------|-----------------|
||o-----------------|-----------------|-----------------|-----------------|
||o-----------------|-----------------|-----------------|-----------------|
||--5-5-5-5-5-5-5-5-|-5-5-5-5-5-5-5-5-|-1-1-1-1-1-1-1-1-|-1-1-1-1-1-0-0-0-|


  1.
  E E E E E E E E   E E E E E E E E   E E E E E E E E   E E E E E E E E
|-----------------|-----------------|-----------------|-------------------||
|-----------------|-----------------|-----------------|------------------o||
|-----------------|-----------------|-----------------|-3-3-3-3-5-5-5-5--o||
|-5-5-5-5-5-5-5-5-|-5-5-5-5-5-5-5-5-|-3-3-3-3-3-3-3-3-|-------------------||


  2.                                H.=H
  E E E E E E E E   E E E E E E E E   W          H    H
|-----------------|-----------------|----------|-----------|
|-----------------|-----------------|----------|-----------|
|-----------------|-----------------|----------|-3----5----|
|-5-5-5-5-5-5-5-5-|-5-5-5-5-5-5-5-5-|-3--------|-----------|


  Q=86
  W          +W
|----------|--------*|
|----------|--------*|
|----------|--------*|
|-5--------|-(5)----*|




--------------------------------------------------------------------------------


Duration Legend
---------------
W - whole; H - half; Q - quarter; E - 8th; S - 16th; T - 32nd; X - 64th; a - acciaccatura
+ - note tied to previous; . - note dotted; .. - note double dotted
Uncapitalized letters represent notes that are staccato (1/2 duration)
Irregular groupings are notated above the duration line
Duration letters will always appear directly above the note/fret number it represents the
duration for.  Duration letters with no fret number below them represent rests.  Multi-
bar rests are notated in the form Wxn, where n is the number of bars to rest for.  Low
melody durations appear below the staff

Tablature Legend
----------------
 h   - hammer-on
 p   - pull-off
 b   - bend
 pb  - pre-bend
 r   - bend release (if no number after the r, then release immediately)
 /\  - slide into or out of (from/to "nowhere")
 s   - legato slide
 S   - shift slide
 - natural harmonic
[n]  - artificial harmonic
n(n) - tapped harmonic
 ~   - vibrato
 tr  - trill
 T   - tap
 TP  - trem. picking
 PM  - palm muting
\n/  - tremolo bar dip; n = amount to dip
 \n  - tremolo bar down
 n/  - tremolo bar up
/n\  - tremolo bar inverted dip
 =   - hold bend; also acts as connecting device for hammers/pulls
 <> - volume swell (louder/softer)
 x   - on rhythm slash represents muted slash
 o   - on rhythm slash represents single note slash

Misc Legend
-----------
 |  - bar
||  - double bar
||o - repeat start
o|| - repeat end
*|  - double bar (ending)
 :  - bar (freetime)
 $  - Segno
 &  - Coda
Tempo markers -  = BPM(8/16=s8/s16), where s8 = swing 8ths, s16 = swing 16ths

Suggest correction
Give kudos to tab author, rate the tab!
1 2 3 4 5
comments
print report bad tab
guest
You may want to rate the tab now too:
select rating
Wanna post a correction for this tab? Suggest correction