Oops, an error
Loading. Please wait.

Into Hiding Tab

version 2
version 2

Whole song

Interactive

845 views 1 this week
no commentswrite comment
1 2 3 4 5
please rate
add to favorites
launch autoscroll
font size
0
reset
how to read this tab
guitar tuner
Autoscroll
slow
fast
+/-
esc
set tempo
stop
Help us to improve Ultimate-Guitar.com Take our survey!
×
#----------------------------------PLEASE NOTE---------------------------------#
#This file is the author's own work and represents their interpretation of the #
#song. You may only use this file for private study, scholarship, or research. #
#------------------------------------------------------------------------------#

INTO HIDING
As recorded by Amorphis
(From the 1994 Album TALES FROM THE THOUSAND LAKES)


Transcribed by Mikko Leimu [Kheimos]

 Words and music by Holopainen & Laine

 

B5II
x 2 4 x x x 

D5
x 5 7 x x x 

Db5
x 4 6 x x x 

G5
3 5 x x x x 

Gb5
2 4 x x x x 

Bb5VI
6 8 x x x x 

Ab5IV
4 6 x x x x 

F5
1 3 x x x x 


Gtr I (Db Gb B E Ab Db) - 'Gtr I (Tomi Koivusaari)'
Gtr II (Db Gb B E Ab Db) - 'Gtr II (Esa Holopainen)'


   Intro
    Moderately Q=115
    B5II    D5    Db5   G5      Gb5
   4/4
    Gtr II
    H       Q     Q     H       H
    |       |     |     |       |
    /       /     /     /       /

    Gtr I
    E E E E S S E E E   E E E E E E E E
||--------------------|-----------------|
||o-------------------|-----------------|
||--------------------|-----------------|
||--4-----------------|-----------------|
||o---7-5-4-5h7p5-4---|-----------1-2-4-|
||------------------7-|-3-0-2-3-2-------|


  B5II     D5    Db5   G5      Gb5
   H       Q     Q     H       H
   |       |     |     |       |
   /       /     /     /       /

   E E E E S S E E E   E E E E E E E E
|--------------------|------------------||
|--------------------|-----------------o||
|--------------------|------------------||
|-/4-----------------|------------------||
|----7-5-4-5h7p5-4---|-----------1-2-4-o||
|------------------7-|-3-0-2-3-2--------||


                       1.,2.,3.               4.
            E5   G5     Gb5                   Gb5     N.C.
    Gtr I
    PM----| ~~~~~~~~~   PM----| ~~~~~~~~~
    S S S S H    +Q     S S S S H    +Q    4x E  H    Q.
||--------------------|--------------------||--------------------||
||o-------------------|-------------------o||--------------------||
||--------------------|--------------------||--------------------||
||--------------------|--------------------||--------------------||
||o-7-5-4---4----(4)--|-7-5-4-------------o||-4\-----------------||
||--------7-----------|-------5-6----(6)---||--------------------||
|
|   Gtr II
|   PM----|                                           PM-|
|   S S S S H     Q     W                  4x E  H    S  S   Q
||--------------------|--------------------||--------------------||
||o-------------------|-------------------o||--------------------||
||--------------------|--------------------||--------------------||
||----------2---------|--------------------||--------------------||
||o---------2-----5---|-4-----------------o||-4------------------||
||--0-0-0-0-0-----3---|-2------------------||-2-------0--0-/12\--||


   Pre-Verse
    N.C.(E5)
        PM-----------------------
    E   S S E   S S E S S E S S
||------------------------------|
||o-----------------------------|
||------------------------------|
||------------------------------|
||o-----------------------------|
||--0---0-0-0---0-0-0-0-0-0-0-0-|
|
|   PM------------|
|   S S S S S S S S E E   E E
||------------------------------|
||o-----------------------------|
||------------------------------|
||------------------------6-7---|
||o-----------------7-8---------|
||--0-0-0-0-0-0-0-0-------------|


 -------------------------------------------------------------|
  E   S S E   S S E S S E     S S   E   S S E   S S E S S E S S
|---------------------------------|-----------------------------|
|---------------------------------|-----------------------------|
|---------------------------------|-----------------------------|
|---------------------------------|-----------------------------|
|---------------------------------|-----------------------------|
|-0---0-0-0---0-0-0-0-0-0-----0-0-|-0---0-0-0---0-0-0-0-0-0-0-0-|
|
| PM------------|             ~     PM------------|
| S S S S S S S S E E   T T S E     S S S S S S S S E E   E E
|---------------------------------|-----------------------------|
|---------------------------------|-----------------------------|
|---------------------------------|-----------------------------|
|---------------------------------|-----------------------6-7---|
|-----------------7-8---7h8p7-5---|-----------------7-8---------|
|-0-0-0-0-0-0-0-0-----------------|-0-0-0-0-0-0-0-0-------------|


  1.                                 2.
   PM---------------------------------------------------------|
   E  S S E      S S E S S E S S      E  S S E      S S E S S   Q
|---------------------------------||--------------------------------|
|--------------------------------o||--------------------------------|
|---------------------------------||--------------------------------|
|---------------------------------||--------------------------------|
|--------------------------------o||--------------------------------|
|--0--0-0-0------0-0-0-0-0-0-0-0--||--0--0-0-0------0-0-0-0-0-/12\--|
|
|                          ~                                    ~~~~
|  E  E   T  T S E   E E   Q          E  E   T  T S E   E E     Q
|---------------------------------||--------------------------------|
|--------------------------------o||--------------------------------|
|---------------------------------||--------------------------------|
|-/9-10---9h10p9-7---9-7----------||-/9-10---9h10p9-7---9-7---------|
|--------------------------8-----o||---------------------------[8]--|
|---------------------------------||--------------------------------|


    (E5)            N.C.
        PM--------|           PM------------|           ~
    E   S S S S S S E E E E   S S S S S S S S E E T T S E
||--------------------------|-----------------------------|
||o-------------------------|-----------------------------|
||--------------------------|-----------------------------|
||----------------------6-7-|-----------------------------|
||o-2---------------7-8-----|-----------------7-8-7h8p7-5-|
||--0---0-0-0-0-0-0---------|-0-0-0-0-0-0-0-0-------------|
|
|   PM------------|           PM------------|           ~
|   S S S S S S S S E E E E   S S S S S S S S E E T T S E
||--------------------------|-----------------------------|
||o-------------------------|-----------------------------|
||--------------------------|-----------------------------|
||----------------------6-7-|-----------------------------|
||o-----------------7-8-----|-----------------7-8-7h8p7-5-|
||--0-0-0-0-0-0-0-0---------|-0-0-0-0-0-0-0-0-------------|


  PM------------|                              ~
  S S S S S S S S E E E E    E  E T  T S E E E Q
|-------------------------|--------------------------||
|-------------------------|-------------------------o||
|-------------------------|--------------------------||
|---------------------6-7-|-/9-10-9h10p9-7-9-7-------||
|-----------------7-8-----|--------------------8----o||
|-0-0-0-0-0-0-0-0---------|--------------------------||
|
| PM------------|                              ~
| S S S S S S S S E E E E    E  E T  T S E E E Q
|-------------------------|--------------------------||
|-------------------------|-------------------------o||
|-------------------------|--------------------------||
|---------------------6-7-|-/9-10-9h10p9-7-9-7-------||
|-----------------7-8-----|--------------------8----o||
|-0-0-0-0-0-0-0-0---------|--------------------------||


    PM------------|               PM------------|             ~
    S S S S S S S S  E   E E  E   S S S S S S S S E  E T  T S E
||------------------------------|-------------------------------|
||o------------------------9-10-|-------------------------------|
||-------------------9--10------|-----------------9-10-9h10p9-7-|
||------------------(9)---------|-------------------------------|
||o-----------------------------|-------------------------------|
||--0-0-0-0-0-0-0-0-------------|-0-0-0-0-0-0-0-0---------------|
|
|   PM------------|               PM------------|             ~
|   S S S S S S S S  E   E E  E   S S S S S S S S E  E T  T S E
||------------------------------|-------------------------------|
||o-----------------------------|-------------------------------|
||------------------------------|-------------------------------|
||-------------------------6--7-|-------------------------------|
||o------------------7---8------|-----------------7--8-7h=8p7-5-|
||--0-0-0-0-0-0-0-0-------------|-0-0-0-0-0-0-0-0---------------|


  PM------------|                                         ~~
  S S S S S S S S  E   E E  E     E  E  T  T  S  E  E  E  Q
|-----------------------------|---------------------------------||
|------------------------9-10-|-/12-13-12h13p12-10-12-10-------o||
|------------------9--10------|--------------------------10-----||
|-----------------(9)---------|---------------------------------||
|-----------------------------|--------------------------------o||
|-0-0-0-0-0-0-0-0-------------|---------------------------------||
|
| PM------------|                                         ~~
| S S S S S S S S  E   E E  E     E  E  T  T  S  E  E  E  Q
|-----------------------------|---------------------------------||
|-----------------------------|--------------------------------o||
|-----------------------------|---------------------------------||
|------------------------6--7-|--/9-10--9h10p=9--7--9--7--------||
|------------------7---8------|---------------------------8----o||
|-0-0-0-0-0-0-0-0-------------|---------------------------------||


   1st Verse
    $
    E5                        G5
      PM------------------|     PM------------------|
    E E  E  E   S S E E S S   E E  E  E     E E E S S
||--------------------------|-------------------------|
||o-------------------------|-------------------------|
||--------------------------|-------------------------|
||--------------------------|-------------------------|
||o-2-----------------------|-5-----------------------|
||--0-0--0--0---0-0-0-0-0-0-|-3-3--3--3-----3-3-3-3-3-|
|
|   ~~~~~~~~                  ~
|                                     |-3-|
|   Q   +E  S S E   E E E     Q   +E  S S S Q   Q
||--------------------------|-------------------------|
||o-------------------------|-------------------------|
||--------------4-----------|-------------------------|
||--2---(2)-4-5-----5-4-2---|---------0h2p0-----------|
||o-------------------------|-5---(5)-------2---5-----|
||--------------------------|-------------------------|


  A5                            B5
    PM----------------------|     PM------|     PM----|   PM|
  E E  E  E   S S E     E S S   E S S  S  S E   S S S S E S S
|-----------------------------|----------------------------------||
|-----------------------------|---------------------------------o||
|-----------------------------|----------------------------------||
|-----------------------------|----------------------------------||
|-7---------------------------|-9-----------9-----------9-------o||
|-5-5--5--5---5-5-5-----5-5-5-|-7-7-7--7--7-7---7-7-7-7-7-7-7----||
|
| ~~~~~~~~                      ~~~~~~~~~~      ~~~~~~~~~~
| Q   +E  S S E   T T S E E     Q     +E    S S Q       Q
|-----------------------------|----------------------------------||
|-----------------------------|---------------------------------o||
|-----------------------------|----------------------------------||
|-----------2-4---2h4p2-------|-------------------------5--------||
|-3---(3)-5-------------5-3---|-2-----(2)---3h5-2---------------o||
|-----------------------------|----------------------------------||


    E5                   G5
    W                    W
||---------------------|--------------------|
||o--------------------|--------------------|
||---------------------|--------------------|
||--2------------------|-5------------------|
||o-2------------------|-5------------------|
||--0------------------|-3------------------|
|
|   ~~~~~~~              ~            ~
|                               |-3-|
|   Q  +E  S S E E E E   Q  +E  S S S Q  Q
||---------------------|--------------------|
||o--------------------|--------------------|
||-------------4-------|--------------------|
||--2--(2)-4-5---5-4-2-|--------0h2p0-------|
||o--------------------|-5--(5)-------2--5--|
||---------------------|--------------------|


                                                  To Coda
  A5                       B5
                             PM------|     PM----|   PM|
  W                        E S S  S  S E   S S S S E S S
|------------------------|-----------------------------------||
|------------------------|----------------------------------o||
|------------------------|-----------------------------------||
|-7----------------------|-----------------------------------||
|-7----------------------|-9-----------9-----------9--------o||
|-5----------------------|-7-7-7--7--7-7---7-7-7-7-7-7-7-----||
|
| ~~~~~~~                  ~~~~~~~~~~      ~~~~~~~~~~
| Q  +E  S S E T T S E E   Q     +E    S S Q       Q
|------------------------|-----------------------------------||
|------------------------|----------------------------------o||
|------------------------|-----------------------------------||
|----------2-4-2h4p2-----|-------------------------5---------||
|-3--(3)-5-----------5-3-|-2-----(2)---3h5-2----------------o||
|------------------------|-----------------------------------||


   2nd Verse
    C5                   Ab5               Bb5
    H          +Q   Q    W                 H          +Q   Q
||---------------------|-----------------|--------------------|
||o--------------------|-----------------|--------------------|
||---------------------|-----------------|--------------------|
||--5----------(5)--5--|-----------------|--------------------|
||o-3----------(3)--3--|-6---------------|-8----------(8)--8--|
||---------------------|-4---------------|-6----------(6)--6--|
|
|           ~            ~~~~~~~      ~            ~
|   S S S S H       Q    Q  +E  E E E Q    S S S S H       Q
||---------------------|-----------------|--------------------|
||o--------------------|-----------------|--------------------|
||------------------5--|-----------------|-----------------5--|
||--5h6p5p3-5----------|-3--(3)-3-6-5----|-5h6p5p3-5----------|
||o--------------------|--------------3--|--------------------|
||---------------------|-----------------|--------------------|


 1.                         2.
  G5                        G5
    PM------|               PM--------------|
  E S S  S  S E E E E E     E E  E  E E E E E
|------------------------||---------------------||
|-----------------------o||---------------------||
|------------------------||---------------------||
|------------------------||---------------------||
|-5-----------5---5---5-o||-5-5--5--5-5-5-5-5---||
|-3-3-3--3--3-3-x-3-x-3--||-3-3--3--3-3-3-3-3---||
|
| ~~~~~~~~~~        ~~~~~~~~~~~~~~~~      ~
| Q     +E    E E E Q       Q   +E  E E E Q
|------------------------||---------------------||
|-----------------------o||---------------------||
|------------------------||---------------------||
|-3-----(3)---3-6-5------||-3---(3)-3-6-5-------||
|-------------------3---o||---------------3-----||
|------------------------||---------------------||


 Chorus
  Bb5VI             Gb5                Ab5IV               F5
  Gtr II
  Q.   E  Q.    E   Q.      E Q   Q    Q.        E Q  Q    Q.      E Q   Q
  |    |  |     |   |       | |   |    |         | |  |    |       | |   |
  /    /  /     /   /       / /   /    /         / /  /    /       / /   /

  Gtr I
  ~~~~~~~~~~~~~~~~~~~~~~~~~~      ~            ~           ~~~~~~~~      ~
  Q.   Q.     Q     Q   +E  E E E Q    S S S S H      Q    Q   +E  E E E Q
|-----------------|------------------|-------------------|------------------|
|-------------6---|------------------|----------------6--|------------------|
|------5----------|-----------6p5----|-5h6p5---5---------|-----------6-5----|
|-8---------------|-8---(8)-8-----6--|-------8-----------|-8---(8)-8-----6--|
|-----------------|------------------|-------------------|------------------|
|-----------------|------------------|-------------------|------------------|


    Bb5VI           Gb5                Ab5IV               F5
    Q.   E  Q  Q    Q.      E Q   Q    Q.        E Q  Q    Q.      E Q   Q
    |    |  |  |    |       | |   |    |         | |  |    |       | |   |
    /    /  /  /    /       / /   /    /         / /  /    /       / /   /

    ~~~~~~~~~~~~~~~~~~~~~~~~      ~            ~           ~~~~~~~~      ~
    Q.   Q.    Q    Q   +E  E E E Q    S S S S H      Q    Q   +E  E E E Q
||----------------|------------------|-------------------|--------------------||
||o------------6--|------------------|----------------6--|-------------------o||
||-------5--------|-----------6p5----|-5h6p5---5---------|-----------6-5------||
||--8-------------|-8---(8)-8-----6--|-------8-----------|-8---(8)-8-----6----||
||o---------------|------------------|-------------------|-------------------o||
||----------------|------------------|-------------------|--------------------||


                                                             D.S. al Coda
  Bb5VI           Gb5               Ab5IV               F5
  Q.   E  Q  Q    W                 Q.        Q.   Q    Q.      Q.     Q
  |    |  |  |    |                 |         |    |    |       |      |
  /    /  /  /    /                 /         /    /    /       /      /

  ~~~~~~~~~~~~~~~~~~~~~~~      ~            ~           ~~~~~~~~       ~
  Q.   Q.    Q    Q  +E  E E E Q    S S S S H      Q    Q   +E  E  E E Q
|---------------|-----------------|-------------------|-------------------||
|------------6--|-----------------|----------------6--|-------------------||
|------5--------|----------6p5----|-5h6p5---5---------|------------6-5----||
|-8-------------|-8--(8)-8-----6--|-------8-----------|-8---(8)-8------6--||
|---------------|-----------------|-------------------|-------------------||
|---------------|-----------------|-------------------|-------------------||


 Outro
  Half-Time Feel Q=95
  &
  E5                                         N.C.
 3/4
  Gtr I
  H.                            +H.
|-----------------------------|-----------------------|
|-----------------------------|-----------------------|
|-----------------------------|-----------------------|
|-2---------------------------|-(2)-------------------|
|-2---------------------------|-(2)-------------------|
|-0---------------------------|-(0)-------------------|
|
| Gtr II
|       PM----|       PM----|          PM--|   ~~~~~~~
| S  S  S S S S S  S  S S S S    S  S  S S S S Q  +E
|-----------------------------|-----------------------|
|-----------------------------|-----------------------|
|-----------------------------|-----------------------|
|-7h=9----------7h=9----------|--7h=9-----------------|
|-7-(7)---------7-(7)---------|--7-(7)----------------|
|-------0-0-0-0-------0-0-0-0-|--------0-0-0-7-6--(6)-|


    E5                                      N.C.
        PM----|       PM----|         PM--|   ~~~~~~~
  S  S  S S S S S  S  S S S S   S  S  S S S S Q  +E
|-----------------------------|----------------------|
|-----------------------------|----------------------|
|-----------------------------|----------------------|
|-7h=9----------7h=9----------|-7h=9-----------------|
|-7-(7)---------7-(7)---------|-7-(7)---------5--(5)-|
|-------0-0-0-0-------0-0-0-0-|-------0-0-0-7--------|
|
|       PM----|       PM----|         PM--|   ~~~~~~~
| S  S  S S S S S  S  S S S S   S  S  S S S S Q  +E
|-----------------------------|----------------------|
|-----------------------------|----------------------|
|-----------------------------|----------------------|
|-7h=9----------7h=9----------|-7h=9-----------------|
|-7-(7)---------7-(7)---------|-7-(7)---------5--(5)-|
|-------0-0-0-0-------0-0-0-0-|-------0-0-0-7--------|


      E5                                      N.C.
    Gtrs I, II
          PM----|       PM----|         PM--|   ~~~~~~~
    S  S  S S S S S  S  S S S S   S  S  S S S S Q  +E
||------------------------------|----------------------|
||o-----------------------------|----------------------|
||------------------------------|----------------------|
||--7h=9----------7h=9----------|-7h=9-----------------|
||o-7-(7)---------7-(7)---------|-7-(7)----------------|
||--------0-0-0-0-------0-0-0-0-|-------0-0-0-7-6--(6)-|


    E5                                      N.C.
        PM----|       PM----|         PM--|   ~~~~~~~
  S  S  S S S S S  S  S S S S   S  S  S S S S Q  +E    4x
|-----------------------------|------------------------||
|-----------------------------|-----------------------o||
|-----------------------------|------------------------||
|-7h=9----------7h=9----------|-7h=9-------------------||
|-7-(7)---------7-(7)---------|-7-(7)---------5--(5)--o||
|-------0-0-0-0-------0-0-0-0-|-------0-0-0-7----------||


               E5          D5E5 D5E5         N.C.
   ~~~             PM----|
  +H.        S  S  S S S S S  E S  E   +Q    H
|----------|-------------------------|------------*|
|----------|-------------------------|------------*|
|----------|-------------------------|------------*|
|----------|-7h=9--9-9-9-9-7-/9-7-/9-|-(9)\-------*|
|-(5)------|-7-(7)-7-7-7-7-5-/7-5-/7-|-(7)\-------*|
|----------|-------------------------|------------*|




--------------------------------------------------------------------------------


Duration Legend
---------------
W - whole; H - half; Q - quarter; E - 8th; S - 16th; T - 32nd; X - 64th; a - acciaccatura
+ - note tied to previous; . - note dotted; .. - note double dotted
Uncapitalized letters represent notes that are staccato (1/2 duration)
Irregular groupings are notated above the duration line
Duration letters will always appear directly above the note/fret number it represents the
duration for.  Duration letters with no fret number below them represent rests.  Multi-
bar rests are notated in the form Wxn, where n is the number of bars to rest for.  Low
melody durations appear below the staff

Tablature Legend
----------------
 h   - hammer-on
 p   - pull-off
 b   - bend
 pb  - pre-bend
 r   - bend release (if no number after the r, then release immediately)
 /\  - slide into or out of (from/to "nowhere")
 s   - legato slide
 S   - shift slide
 - natural harmonic
[n]  - artificial harmonic
n(n) - tapped harmonic
 ~   - vibrato
 tr  - trill
 T   - tap
 TP  - trem. picking
 PM  - palm muting
\n/  - tremolo bar dip; n = amount to dip
 \n  - tremolo bar down
 n/  - tremolo bar up
/n\  - tremolo bar inverted dip
 =   - hold bend; also acts as connecting device for hammers/pulls
 <> - volume swell (louder/softer)
 x   - on rhythm slash represents muted slash
 o   - on rhythm slash represents single note slash

Misc Legend
-----------
 |  - bar
||  - double bar
||o - repeat start
o|| - repeat end
*|  - double bar (ending)
 :  - bar (freetime)
 $  - Segno
 &  - Coda
Tempo markers -  = BPM(8/16=s8/s16), where s8 = swing 8ths, s16 = swing 16ths

Suggest correction
Give kudos to tab author, rate the tab!
1 2 3 4 5
comments
print report bad tab
guest
You may want to rate the tab now too:
select rating
Please do not post tabs as comments. Select "correction" instead!