Oops, an error
Loading. Please wait.

Shaman Tab

version 2
version 2

Whole song

Interactive

2,072 views 3 this week
no commentswrite comment
1 2 3 4 5
please rate
add to favorites
launch autoscroll
font size
0
reset
how to read this tab
guitar tuner
Autoscroll
slow
fast
+/-
esc
set tempo
stop
Help us to improve Ultimate-Guitar.com Take our survey!
×
#----------------------------------PLEASE NOTE---------------------------------#
#This file is the author's own work and represents their interpretation of the #
#song. You may only use this file for private study, scholarship, or research. #
#------------------------------------------------------------------------------#




Transcribed by Ri_



 

 

Gtr I (D G C F A D) - '12 string Low'
Gtr II (C G C F A D) - '12 string high'
Gtr III (D G C F A D) - 'Untitled'
Gtr IV (D G C F A D) - 'Untitled'
Gtr V (D G C F A D) - 'Untitled'
Gtr VI (D G C F A D) - 'Untitled'


 Intro
  Q=120
  D5                              D5
 4/4
  Gtrs I, II
  E E E E a Q  E E   Q  H.        E E E E a Q  E E   Q  H.
|------------------|------------|------------------|----------|
|-3-------3-3------|----3-------|-3-------3-3------|----3-----|
|-2-----0-0h2----0-|----2-------|-2-----0-0h2----0-|----2-----|
|-0-2-3--------3---|----0-------|-0-2-3--------3---|----0-----|
|------------------|-3----------|------------------|-3--------|
|------------------|------------|------------------|----------|


  E E S S E Q  S S E   Q  H.        E E S S E Q  E E   Q  H.
|--------------------|------------|------------------|----------|
|--------------------|----3-------|------------------|----3-----|
|-----0h2p0----------|----2-------|-----0h2p0--------|----2-----|
|-3-2-------3--2h3p2-|----0-------|-3-2-------3--2-0-|----0-----|
|--------------------|-3----------|------------------|-3--------|
|--------------------|------------|------------------|----------|


  D5                              D5
  E E E E a Q  E E   Q  H.        E E E E a Q  E E   Q  H.
|------------------|------------|------------------|----------|
|-3-------3-3------|----3-------|-3-------3-3------|----3-----|
|-2-----0-0h2----0-|----2-------|-2-----0-0h2----0-|----2-----|
|-0-2-3--------3---|----0-------|-0-2-3--------3---|----0-----|
|------------------|-3----------|------------------|-3--------|
|------------------|------------|------------------|----------|
|
| Gtr III
| E E E E a Q  E E   Q  H.        E E E E a Q  E E   Q  H.
|------------------|------------|------------------|----------|
|------------------|------------|------------------|----------|
|-------0-0h2----0-|------------|-------0-0h2----0-|----------|
|-0-2-3--------3---|----0-------|-0-2-3--------3---|----0-----|
|------------------|-3----------|------------------|-3--------|
|------------------|------------|------------------|----------|


  E E S S E Q  S S E   Q  H.        E E S S E Q  E E   Q  H.
|--------------------|------------|------------------|----------||
|--------------------|----3-------|------------------|----3-----||
|-----0h2p0----------|----2-------|-----0h2p0--------|----2-----||
|-3-2-------3--2h3p2-|----0-------|-3-2-------3--2-0-|----0-----||
|--------------------|-3----------|------------------|-3--------||
|--------------------|------------|------------------|----------||
|
| E E S S E Q  E   E   Q  H.        E E S S E Q  E E   Q  H.
|--------------------|------------|------------------|----------||
|--------------------|------------|------------------|----------||
|-----0h2p0----------|------------|-----0h2p0--------|----------||
|-3-2-------3--2---0-|----0-------|-3-2-------3--2-0-|----0-----||
|--------------------|-3----------|------------------|-3--------||
|--------------------|------------|------------------|----------||
|
|                                   Gtr IV
| W                    W            E E E   E Q  E E   Q  H.
|--------------------|------------|------------------|----------||
|--------------------|------------|------------------|----3-----||
|--------------------|------------|-----2---0--------|----2-----||
|--------------------|------------|-3-2-------3--2-0-|----0-----||
|--------------------|------------|------------------|-3--------||
|--------------------|------------|------------------|----------||


   Pre-Verse
    $
    A5                   G5   A5
    Gtr IV
    E E  E E Q    E E    E  E Q.     E E  E
||--------------------||--------------------|
||o-------------------||--------------------|
||---------7-9------7-||--------------------|
||--7-9-10-------10---||-9----7------7-7----|
||o-------------------||---10------------10-|
||--------------------||--------------------|
|
|   Gtr V
|        PM----------------------------------
|   Q    E E E E  E E    E  E E  E E E E  E
||--------------------||--------------------|
||o-------------------||--------------------|
||--------------------||--------------------|
||--7-----------------||--------------------|
||o-7----7-7-7-7--7-7-||-5--5-7--7-7-7-7--7-|
||--5----5-5-5-5--5-5-||-3--3-5--5-5-5-5--5-|


  F5                   E5
                       |-3--|
  E  E E E  Q    E E   S  S S  E  H.
|--------------------|---------------------------||
|--------------------|--------------------------o||
|------------------7-|---------------------------||
|------7-9-10---10---|-9-10-9--------------------||
|-8-10---------------|--------10-10-------------o||
|--------------------|---------------------------||
|
|--------------------------------------------|
| E  E E E  E E  E E   E       E  E  E E E E E
|--------------------|---------------------------||
|--------------------|--------------------------o||
|--------------------|---------------------------||
|--------------------|---------------------------||
|-3--3-3-3--3-3--3-3-|-2-------2--2--2-2-2-2-2--o||
|-1--1-1-1--1-1--1-1-|-0-------0--0--0-0-0-0-0---||


   Verse
    A5                  G5   A5
    E E  E E Q    E E   E  E Q   +E  E E  E
||--------------------|---------------------|
||o-------------------|---------------------|
||---------7-9------7-|---------------------|
||--7-9-10-------10---|-9----7---(7)-7-7----|
||o-------------------|---10-------------10-|
||--------------------|---------------------|
|
|        PM----------------------------------
|   Q    E E E E  E E   E  E E E  E  E E  E
||--------------------|---------------------|
||o-------------------|---------------------|
||--------------------|---------------------|
||--7-----------------|---------------------|
||o-7----7-7-7-7--7-7-|-5--5-7-7--7--7-7--7-|
||--5----5-5-5-5--5-5-|-3--3-5-5--5--5-5--5-|


  F5                   E5
                       |-3--|
  E  E E E  Q    E E   S  S S  E  H.
|--------------------|---------------------------||
|--------------------|--------------------------o||
|------------------7-|---------------------------||
|------7-9-10---10---|-9h10p9--------------------||
|-8-10---------------|--------10-10-------------o||
|--------------------|---------------------------||
|
|--------------------------------------------|
| E  E E E  E E  E E   E       E  E  E E E E E
|--------------------|---------------------------||
|--------------------|--------------------------o||
|--------------------|---------------------------||
|--------------------|---------------------------||
|-3--3-3-3--3-3--3-3-|-2-------2--2--2-2-2-2-2--o||
|-1--1-1-1--1-1--1-1-|-0-------0--0--0-0-0-0-0---||


   Chorus
    D5                   C5   D5
    E E  E E  Q    E E   E  E Q   +E  E E  E
||---------------------|---------------------|
||o--------8-10------8-|---------------------|
||--7-9-10--------10---|-9----7---(7)-7-7----|
||---------------------|---10-------------10-|
||o--------------------|---------------------|
||---------------------|---------------------|
|
|   PM----------------------------------------
|   Q    E E  E E  E E   E  E E E  E  E E  E
||---------------------|---------------------|
||o--------------------|---------------------|
||--7------------------|---------------------|
||--7----7-7--7-7--7-7-|-5--5-7-7--7--7-7--7-|
||o-5----5-5--5-5--5-5-|-3--3-5-5--5--5-5--5-|
||---------------------|---------------------|


                                         D.S.
  Bb5                  A5
                       |-3--|
  E  E E E  Q    E E   S  S S  E  H.
|--------------------|---------------------------||
|------------------8-|--------------------------o||
|------7-9-10---10---|-9h10p9--------------------||
|-8-10---------------|--------10-10--------------||
|--------------------|--------------------------o||
|--------------------|---------------------------||
|
|--------------------------------------------|
| E  E E E  E E  E E   E       E  E  E E E E E
|--------------------|---------------------------||
|--------------------|--------------------------o||
|--------------------|---------------------------||
|-3--3-3-3--3-3--3-3-|-2-------2--2--2-2-2-2-2---||
|-1--1-1-1--1-1--1-1-|-0-------0--0--0-0-0-0-0--o||
|--------------------|---------------------------||


 Breakdown
  >                          >
  W                         +W
|-------------------------|---------------------------|
|-------------------------|---------------------------|
|-7-----------------------|-(7)-----------------------|
|-7-----------------------|-(7)-----------------------|
|-5-----------------------|-(5)-----------------------|
|-------------------------|---------------------------|
|
| |-3-| |-3-| |-3-| |-3-|    |-3--| |-3-| |-3-| |-3-|
| E E E E E E E E E E E E    E  E E E E E E E E E E E
|-------------------------|---------------------------|
|-------------------------|---------------------------|
|-------------------------|---------------------------|
|-0-0-0-0-0-0-0-0-0-3-2-3-|--0--0-0-0-0-0-0-0-0-3-2-3-|
|-------------------------|---------------------------|
|-------------------------|---------------------------|


  W                         W
|-------------------------|----------------------------|
|-------------------------|----------------------------|
|-------------------------|----------------------------|
|-------------------------|----------------------------|
|-------------------------|----------------------------|
|-------------------------|----------------------------|
|
| |-3-| |-3-| |-3-| |-3-|   |-3-| |-3-| |-3-| |-3-|
| E E E E E E E E E E E E   E E E E E E E E E E E E
|-------------------------|----------------------------|
|-------------------------|----------------------------|
|-------------------------|----------------------------|
|-3-0-0-2-0-0-7-0-0-5-0-0-|-3-0-0-2-0-0-------0---0----|
|-------------------------|-------------3-3-3---3------|
|-------------------------|----------------------------|


    |-3-| |-3-| |-3-| |-3-|   |-3-| |-3-| |-3-| |-3-|
    E E E E E E E E E E E E   E E E E E E E E E E E E
||--------------------------|-------------------------|
||o-------------------------|-------------------------|
||--------------------------|-------------------------|
||--0-0-0-0-0-0-0-0-0-3-2-3-|-0-0-0-0-0-0-0-0-0-3-2-3-|
||o-------------------------|-------------------------|
||--------------------------|-------------------------|


  |-3-| |-3-| |-3-| |-3-|   |-3-| |-3-| |-3-| |-3-|
  E E E E E E E E E E E E   E E E E E E E E E E E E
|-------------------------|----------------------------||
|-------------------------|---------------------------o||
|-------------------------|----------------------------||
|-3-0-0-2-0-0-7-0-0-5-0-0-|-3-0-0-2-0-0-------0---0----||
|-------------------------|-------------3-3-3---3-----o||
|-------------------------|----------------------------||


  |-3-| |-3-| |-3-|  |-3--|   |-3-| |-3-| |-3-|  |-3--|
  E E E E E E E E E  E E  E   E E E E E E E E E  E E  E
|---------------------------|---------------------------|
|---------------------------|---------------------------|
|-7-7-7-7-7-7-7-7-7-10-9-10-|-7-7-7-7-7-7-7-7-7-10-9-10-|
|---------------------------|---------------------------|
|---------------------------|---------------------------|
|---------------------------|---------------------------|


   |-3-| |-3-|  |-3-| |-3-|    |-3-| |-3-|  |--3--| |-3--|
   E E E E E E  E E E E E E    E E E E E E  E  E  E E  E E
|---------------------------|---------------------------------|
|--------------10-----8-----|---------------------------------|
|-10-7-7-9-7-7----7-7---7-7-|-10-7-7-9-7-7----------7----7----|
|---------------------------|--------------10-10-10---10------|
|---------------------------|---------------------------------|
|---------------------------|---------------------------------|


   Guitar Break
    Gtr IV
    |-3-| |-3-|  |-3--|  |-3--|   |-3-| |-3-|  |-3--|  |-3--|
    E E E E E E  E  E E  E E  E   E E E E E E  E  E E  E E  E
||------------------------------|-----------------------------|
||o-----------------------------|-----------------------------|
||------------------------------|-----------------------------|
||--0-0-0-0-0-0--0--0-0--3-2--3-|-0-0-0-0-0-0--0--0-0--3-2--3-|
||o-----------------------------|-----------------------------|
||------------------------------|-----------------------------|
|
|   Gtr V
|   |-3-| |-3-|  |-3--|  |-3--|   |-3-| |-3-|  |-3--|  |-3--|
|   E E E E E E  E  E E  E E  E   E E E E E E  E  E E  E E  E
||------------------------------|-----------------------------|
||o-----------------------------|-----------------------------|
||--7-7-7-7-7-7--7--7-7-10-9-10-|-7-7-7-7-7-7--7--7-7-10-9-10-|
||------------------------------|-----------------------------|
||o-----------------------------|-----------------------------|
||------------------------------|-----------------------------|
|
|   Gtr VI
|                        |-3--|                        |-3--|
|   H           +Q       E E  E   H           +Q       E E  E
||------------------------------|-----------------------------|
||o-----------------------------|-----------------------------|
||--7-----------(7)-----10-9-10-|-7-----------(7)-----10-9-10-|
||------------------------------|-----------------------------|
||o-----------------------------|-----------------------------|
||------------------------------|-----------------------------|


   |-3-| |-3-|  |-3-| |-3-|    |-3-| |-3-|  |--3--|  |-3--|
   E E E E E E  E E E E E E    E E E E E E  E  E  E  E  E E    4x
|---------------------------|----------------------------------||
|---------------------------|---------------------------------o||
|---------------------------|----------------------------------||
|--3-0-0-2-0-0--7-0-0-5-0-0-|--3-0-0-2-0-0-----------0----0----||
|---------------------------|---------------3--3--3-----3-----o||
|---------------------------|----------------------------------||
|
|  |-3-| |-3-|  |-3-| |-3-|    |-3-| |-3-|  |--3--|  |-3--|
|  E E E E E E  E E E E E E    E E E E E E  E  E  E  E  E E    4x
|---------------------------|----------------------------------||
|--------------10-----8-----|---------------------------------o||
|-10-7-7-9-7-7----7-7---7-7-|-10-7-7-9-7-7-----------7----7----||
|---------------------------|--------------10-10-10----10------||
|---------------------------|---------------------------------o||
|---------------------------|----------------------------------||
|
|  Q     Q      Q     Q        Q     Q      Q        Q         4x
|---------------------------|----------------------------------||
|--------------10-----8-----|---------------------------------o||
|-10-----9------------------|-10-----9-------------------------||
|---------------------------|--------------10-------10---------||
|---------------------------|---------------------------------o||
|---------------------------|----------------------------------||


   Pre-Verse
    A5                   G5   A5
    E E  E E Q    E E    E  E Q.     E E  E
||--------------------||--------------------|
||o-------------------||--------------------|
||---------7-9------7-||--------------------|
||--7-9-10-------10---||-9----7------7-7----|
||o-------------------||---10------------10-|
||--------------------||--------------------|
|
|        PM----------------------------------
|   Q    E E E E  E E    E  E E  E E E E  E
||--------------------||--------------------|
||o-------------------||--------------------|
||--------------------||--------------------|
||--7-----------------||--------------------|
||o-7----7-7-7-7--7-7-||-5--5-7--7-7-7-7--7-|
||--5----5-5-5-5--5-5-||-3--3-5--5-5-5-5--5-|


  F5                   E5
                       |-3--|
  E  E E E  Q    E E   S  S S  E  H.
|--------------------|---------------------------||
|--------------------|--------------------------o||
|------------------7-|---------------------------||
|------7-9-10---10---|-9-10-9--------------------||
|-8-10---------------|--------10-10-------------o||
|--------------------|---------------------------||
|
|--------------------------------------------|
| E  E E E  E E  E E   E       E  E  E E E E E
|--------------------|---------------------------||
|--------------------|--------------------------o||
|--------------------|---------------------------||
|--------------------|---------------------------||
|-3--3-3-3--3-3--3-3-|-2-------2--2--2-2-2-2-2--o||
|-1--1-1-1--1-1--1-1-|-0-------0--0--0-0-0-0-0---||


   Verse
    A5                   G5   A5
    E E  E E Q    E E    E  E Q.     E E  E
||--------------------||--------------------|
||o-------------------||--------------------|
||---------7-9------7-||--------------------|
||--7-9-10-------10---||-9----7------7-7----|
||o-------------------||---10------------10-|
||--------------------||--------------------|
|
|        PM----------------------------------
|   Q    E E E E  E E    E  E E  E E E E  E
||--------------------||--------------------|
||o-------------------||--------------------|
||--------------------||--------------------|
||--7-----------------||--------------------|
||o-7----7-7-7-7--7-7-||-5--5-7--7-7-7-7--7-|
||--5----5-5-5-5--5-5-||-3--3-5--5-5-5-5--5-|


  F5                   E5
                       |-3--|
  E  E E E  Q    E E   S  S S  E  H.
|--------------------|---------------------------||
|--------------------|--------------------------o||
|------------------7-|---------------------------||
|------7-9-10---10---|-9-10-9--------------------||
|-8-10---------------|--------10-10-------------o||
|--------------------|---------------------------||
|
|--------------------------------------------|
| E  E E E  E E  E E   E       E  E  E E E E E
|--------------------|---------------------------||
|--------------------|--------------------------o||
|--------------------|---------------------------||
|--------------------|---------------------------||
|-3--3-3-3--3-3--3-3-|-2-------2--2--2-2-2-2-2--o||
|-1--1-1-1--1-1--1-1-|-0-------0--0--0-0-0-0-0---||


   Out-Chorus
    D5                   C5     D5
    E E  E E  Q    E E   E  E Q   +E  E E  E
||---------------------|---------------------|
||o--------8-10------8-|---------------------|
||--7-9-10--------10---|-9----7---(7)-7-7----|
||---------------------|---10-------------10-|
||o--------------------|---------------------|
||---------------------|---------------------|
|
|   PM----------------------------------------
|   Q    E E  E E  E E   E  E E E  E  E E  E
||---------------------|---------------------|
||o--------------------|---------------------|
||--7------------------|---------------------|
||--7----7-7--7-7--7-7-|-5--5-7-7--7--7-7--7-|
||o-5----5-5--5-5--5-5-|-3--3-5-5--5--5-5--5-|
||---------------------|---------------------|


  Bb5                  A5
                       |-3--|
  E  E E E  Q    E E   S  S S  E  H.             4x
|--------------------|---------------------------||
|------------------8-|--------------------------o||
|------7-9-10---10---|-9h10p9--------------------||
|-8-10---------------|--------10-10--------------||
|--------------------|--------------------------o||
|--------------------|---------------------------||
|
|--------------------------------------------|
| E  E E E  E E  E E   E       E  E  E E E E E   4x
|--------------------|---------------------------||
|--------------------|--------------------------o||
|--------------------|---------------------------||
|-3--3-3-3--3-3--3-3-|-2-------2--2--2-2-2-2-2---||
|-1--1-1-1--1-1--1-1-|-0-------0--0--0-0-0-0-0--o||
|--------------------|---------------------------||


 Outro
  D5               C5 D5        D5               C5 D5
  Gtrs IV, V
  E E E E Q  E E   Q  H.        E E E E Q  E E   Q  H.
|----------------|------------|----------------|----------|
|----------------|------------|----------------|----------|
|----------------|------------|----------------|----------|
|-------5-7----5-|-5--7-------|-------5-7----5-|-5--7-----|
|-5-7-8------8---|-3--5-------|-5-7-8------8---|-3--5-----|
|----------------|------------|----------------|----------|


                                H.=H
                   C5 D5                         C5 D5
  E E E E Q  E E   Q  H.        E E E E Q  E E   Q  H.
|----------------|------------|----------------|----------*|
|----------------|------------|----------------|----------*|
|----------------|------------|----------------|----------*|
|-----7-5--------|-5--7-------|-----7-5--------|-5--7-----*|
|-8-7-----8--7-5-|-3--5-------|-8-7-----8--7-5-|-3--5-----*|
|----------------|------------|----------------|----------*|




--------------------------------------------------------------------------------


Duration Legend
---------------
W - whole; H - half; Q - quarter; E - 8th; S - 16th; T - 32nd; X - 64th; a - acciaccatura
+ - note tied to previous; . - note dotted; .. - note double dotted
Uncapitalized letters represent notes that are staccato (1/2 duration)
Irregular groupings are notated above the duration line
Duration letters will always appear directly above the note/fret number it represents the
duration for.  Duration letters with no fret number below them represent rests.  Multi-
bar rests are notated in the form Wxn, where n is the number of bars to rest for.  Low
melody durations appear below the staff

Tablature Legend
----------------
 h   - hammer-on
 p   - pull-off
 b   - bend
 pb  - pre-bend
 r   - bend release (if no number after the r, then release immediately)
 /\  - slide into or out of (from/to "nowhere")
 s   - legato slide
 S   - shift slide
 - natural harmonic
[n]  - artificial harmonic
n(n) - tapped harmonic
 ~   - vibrato
 tr  - trill
 T   - tap
 TP  - trem. picking
 PM  - palm muting
\n/  - tremolo bar dip; n = amount to dip
 \n  - tremolo bar down
 n/  - tremolo bar up
/n\  - tremolo bar inverted dip
 =   - hold bend; also acts as connecting device for hammers/pulls
 <> - volume swell (louder/softer)
 x   - on rhythm slash represents muted slash
 o   - on rhythm slash represents single note slash

Misc Legend
-----------
 |  - bar
||  - double bar
||o - repeat start
o|| - repeat end
*|  - double bar (ending)
 :  - bar (freetime)
 $  - Segno
 &  - Coda
Tempo markers -  = BPM(8/16=s8/s16), where s8 = swing 8ths, s16 = swing 16ths

Suggest correction
Give kudos to tab author, rate the tab!
1 2 3 4 5
comments
print report bad tab
guest
You may want to rate the tab now too:
select rating
Please do not post tabs as comments. Select "correction" instead!