Oops, an error
Loading. Please wait.

Silent Waters Bass Tab

version 1
version 1

Whole song

Interactive

2,180 views 1 this week
no commentswrite comment
1 2 3 4 5
please rate
add to favorites
launch autoscroll
font size
0
reset
guitar tuner
Autoscroll
slow
fast
+/-
esc
set tempo
stop
Help us to improve Ultimate-Guitar.com Take our survey!
×
Tuning
C G C F A D
Intro
Piano play intro 2 times. Bass comes in at the end of the second time.
F|-------|
C|-------|
G|-------|
C|-5--4--|

Verse & Guitar Solo & Outro
Riff 1
F|-----------------------------------------------------------------|
C|-----------------------------------------------------------------|
G|-----------------5-5-5-5-5-5-5-5-3-3-3-3-3-3-3-3-0-0-0-0---------|
C|-2-2-2-2-2-2-2-2-----------------------------------------5-5-4-4-|

Riff 2
F|-----------------------------------------------------------------|
C|-----------------------------------------------------------------|
G|-----------------2-2-2-2-2-2-2-2-3-3-3-3-3-3-3-3-0-0-0-0---------|
C|-2-2-2-2-2-2-2-2-----------------------------------------5-5-4-4-|

Bridge
F|--------------------------------|
C|---------2-4-5-4-------------4\-|
G|---0-2-0-----------0-2-0---0----|
C|-2---------------2-------2------|

Chorus
F|-----------------------------------------------------------------|
C|-----------------------------------------------------------------|
G|-3-3-3-3-3-3-3-3-0-0-0-0-0-0-0-0---------------------------------|
C|---------------------------------2-2-2-2-2-2-2-2-0-0-0-0-0-0-0-0-|

Outro Riff 2 last time
F|---------------------------------------------------------------------|
C|---------------------------------------------------------------------|
G|-----------------3-3-3-3-3-3-3-3-2-2-2-2-2-2-2-2-0-------------------|
C|-2-2-2-2-2-2-2-2--------------------------------------5--4--2--------|

The order
Intro  x1
Verse
Riff 1 x1
Riff 2 x1
Riff 1 x1
Riff 2 x1
Bridge x4
Verse
Riff 1 x1
Riff 2 x1
Riff 1 x1
Riff 2 x1
Bridge x2
Chorus x4
Guitar Solo
Riff 1 x1
Riff 2 x1
Verse
Riff 1 x1
Riff 2 x1
Riff 1 x1
Riff 2 x1
Bridge x4
Chorus x4
Outro
Riff 1 x1
Riff 2 x1
Riff 1 x1
Riss 2 las time x1

Enjoy.
Suggest correction
Give kudos to tab author, rate the tab!
1 2 3 4 5
comments
print report bad tab
guest
You may want to rate the tab now too:
select rating
Wanna post a correction for this tab? Suggest correction