Oops, an error
Loading. Please wait.

Silver Bride Tab

version 2
version 2

Intro

Whole song

Interactive

5,763 views 18 this week
no commentswrite comment
1 2 3 4 5
excellent!
x 1
add to favorites
launch autoscroll
font size
0
reset
how to read this tab
guitar tuner
Tab Pro tools
  • play this tab
  • loop segment
  • change instrument
  • show fretboard
  • metronome
Autoscroll
slow
fast
+/-
esc
set tempo
stop
Contributor
Tuning
D A D G B E
AMORPHIS - SILVER BRIDE

Tabbed by: Juukai
Contact me: juukai@hotmail.com
Tuning: Drop-D, DADGHe

*UPDATED* 13.2.2012
 -Fixed tuning and some little mistakes... Should be about 99% right. :P

I was looking for tabs for this (great) song, but I didn't
find any proper ones.(Nothing wrong with intros and/or guitar pro tabs, but anyways)
So I decided to make one myself.

This is my first tab so mail me if you find any mistakes or if you got any suggestions
or something...


INTRO/CHORUS
Played 2x (or more)in the album version with the longer intro and live versions, in the 
versions like the music vid only once though...

      Guitar 1          4x                          2x
e||--------------------------|-----------11--------------|
B||-----13----11----9--------|-----13----------13-11-----|
G||--10----10----10---12----*|*-10----10----10-------13-*|
D||----------------------13-*|*-------------------------*|
A||--------------------------|---------------------------|
D||--------------------------|---------------------------|
 |    Guitar 2
e||--------------------------|---------------------------|
B||--------------------------|---------------------------|
G||-------------------------*|*-------------------------*|
D||--1--3--3--3--3--3--3--3-*|*-6--6--6--6--6--6--6--6--*|
A||--1--3--3--3--3--3--3--3--|--6--6--6--6--6--6--6--6---|
D||--1--3--3--3--3--3--3--3--|--6--6--6--6--6--6--6--6---|

                        2x
  |--------------------------|
  |-----13----11----9--------|
  |*-10----10----10---12----*|
  |*---------------------13-*|
  |--------------------------|
  |--------------------------|
  |
  |--------------------------|
  |--------------------------|
  |*------------------------*|
  |*-1--3--3--3--3--3--3--3-*|
  |--1--3--3--3--3--3--3--3--|
  |--1--3--3--3--3--3--3--3--|


VERSE

    Both Guitars                                          4x
|-----------------------------|---------------------------------|
|-----------------------------|---------------------------------|
|*----------------------------|--------------------------------*|
|*----------------------------|--------------------------------*|
|-----------------------------|---------------------------------|
|--3-3-3-3-3---3-3---3-3-3----|--3-3-3---3-3---3-1-1-1-1-1-1-1--|
PM . . . .  .  . .   . . .     . . .   . .   . . . . . . . .


Guitar 2 continues the riff above and Guitar 1 plays this:

    Guitar 1                                    4x
|------------------------|-------------------------|
|--------6---------------|-6------------------6----|
|*----------8--5---------|----8--5--------------8-*|
|*-5--5-----------5----5-|----------5---5--5------*|
|------------------------|-------------------------|
|------------------------|-------------------------|
PM .  .           .    .            .   .  .


CHORUS - Play the intro riff twice


VERSE


BRIDGE/SOLO
Guitar 2 keeps playing the intro/chorus riff (the chord-part)
and Guitar 1 plays this:

    Guitar 1
|-------------------|-----------------|-----------------|-------------------|
|-18-17-15~~--15-17-|-18~--17b18rb17~-|-15~~--18~--17~--|-18~--18b20rb18b20-|
|-------------------|-----------------|-----------------|-------------------|
|-------------------|-----------------|-----------------|-------------------|
|-------------------|-----------------|-----------------|-------------------|
|-------------------|-----------------|-----------------|-------------------|

|---------------------|--------------|-------------|------------------------|
|-18-17-15~~----------|--------------|-------------|------------------------|
|---------------------|--------------|-------------|------------------------|
|------------18\16\14-|-14~~--14~/18-|-------------|-------18-18-18-18~-18~-|
|---------------------|--------------|-18-17-15~~--|-(15)~------------------|
|---------------------|--------------|-------------|------------------------|

|-------------------|------------------|-----------------|------15b17-15b17-|
|-18-17-15~~--15-17-|-18~--18/21-21\15-|-18~--17~--15-17-|-18~--------------|
|-------------------|------------------|-----------------|------------------|
|-------------------|------------------|-----------------|------------------|
|-------------------|------------------|-----------------|------------------|
|-------------------|------------------|-----------------|------------------|

|-------------------|-------------------|------------|---------|
|-18-17-15~~--------|-------------------|------------|---------|
|-------------------|-------------------|------------|---------|
|-------------18\14-|-14~~--14/18-------|------------|---------|
|-------------------|-------------------|-18-17-15~--|-(15)~~--|
|-------------------|-------------------|------------|---------|


CHORUS
Again play the intro twice and in the end of the second time Guitar 2 brush up the neck 
(listen to the song to get it):

      Guitar 1
--|--------------------------|--------------------------|
--|-----13----11----9--------|-----13----11----9--------|
--|--10----10----10---12-----|--10----10----10---12-----|
--|----------------------13--|----------------------13--|
--|--------------------------|--------------------------|
--|--------------------------|--------------------------|
  |   Guitar 2
--|--------------------------|--------------------------|
--|--------------------------|--------------------------|
--|--------------------------|--------------------------|
--|--1--3--3--3--3--3--3--3--|---------------^^^^^^^^---|
--|--1--3--3--3--3--3--3--3--|---------^^^^^^^^---------|
--|--1--3--3--3--3--3--3--3--|--^^^^^^^^^---------------|

OUTRO
Guitar 1 plays the same three frets lower ("7th fret"):

    Guitar 1           4x                          2x
|---------------------------|------------8--------------|
|-----10-----8-----6--------|-----10----------10--8-----|
|*--7-----7-----7-----9----*|*--7-----7-----7-------10-*|
|*----------------------10-*|*-------------------------*|
|---------------------------|---------------------------|
|---------------------------|---------------------------|
|   Guitar 2
|---------------------------|---------------------------|
|---------------------------|---------------------------|
|*-------------------------*|*-------------------------*|
|*-10-12-12-12-12-12-12-12-*|*-15-15-15-15-15-15-15-15-*|
|--10-12-12-12-12-12-12-12--|--15-15-15-15-15-15-15-15--|
|--10-12-12-12-12-12-12-12--|--15-15-15-15-15-15-15-15--|

                       4x
|---------------------------||
|-----10-----8-----6--------||
|*--7-----7-----7-----9----*||
|*----------------------10-*||
|---------------------------||
|---------------------------||
|
|---------------------------||
|---------------------------||
|*-------------------------*||
|*-10-12-12-12-12-12-12-12-*||
|--10-12-12-12-12-12-12-12--||
|--10-12-12-12-12-12-12-12--||

Play twice and you're done.

-------
 _KEY_
h  - hammer-on
p  - pull-off
b  - bend
rb - release bend
/  - slide up
\  - slide down
~  - sustained
PM - palm muted
*  - repeat
^  - brush up
(#)- a note left ringing (ghost note)
comments
We did not receive enough feedback on this tab! Please rate:
print report bad tab
1 2 3 4 5
I want to post or [tab]
guest
You may want to rate the tab now too:
select rating
Please do not post tabs as comments. Select "correction" instead!