Oops, an error
Loading. Please wait.

Sky Is Mine Tab

version 1
version 1

Whole song

Interactive

6,313 views 1 this week
no commentswrite comment
1 2 3 4 5
x 5
add to favorites
launch autoscroll
font size
0
reset
how to read this tab
guitar tuner
Autoscroll
slow
fast
+/-
esc
set tempo
stop
Help us to improve Ultimate-Guitar.com Take our survey!
×
Author
Band: Amorphis
Song: Sky Is Mine
Album: Skyforger
Tuning: Standard


Guitar 1:
|------------------------|----------------|------------------------|
|------------------------|----------------|------------------------|
|-33--55-77-33--55-77-33-|-55-77-22-------|-33--55-77-33--55-77-33-|
|------------------------|----------55-33-|------------------------|
|------------------------|----------------|------------------------|
|------------------------|----------------|------------------------|

|-------------------------------|
|-------------------------------|
|-55-77-22----------------------|
|----------55-33-11-55-33-11----|
|----------------------------33-| Play this four times
|-------------------------------|


I'm not so sure about the second guitar, but I THINK it goes like this:
|-------------|
|-------------| (Repeat many times)
|-0-----0-----|
|---3-1---3-1-|
|-------------| Play this on the first play
|-------------|

Then in the next one:
|----------------------------------------------------|
|----------------------------------------------------|
|----------------------------------------------------|
|----------------------------------------------------|
|-2-----5-----4-----4-----2-----5-----4-----44444444-|
|-0-----3-----2-----2-----0-----3-----2-----22222222-|

And then:
|----------------------------------------------|       |--------------------------------------|
|----------------------------------------------|       |--------------------------------------|
|----------------------------------------------|       |--------------------------------------|
|----------------------------------------------|       |--------------------------------------|
|-5555555555-4444444444-2222222222222222222222-|       |-22222222-777777777-55555555-44444444-|
|-3333333333-2222222222-0000000000000000000000-|3 times|-00000000-555555555-33333333-22222222-|


Guitar 1:
|-----------------------------------------------------------|
|-11--1313-1515-1111--1313-1515-1010--1212-1414-99-77-55-77-|
|-----------------------------------------------------------|
|-----------------------------------------------------------|
|-----------------------------------------------------------|
|-----------------------------------------------------------|
Guitar 2:                                                    }2 times
|-----------------------------------------------------------|
|-----------------------------------------------------------|
|-----------------------------------------------------------|
|-----------------------------------------------------------|
|--5--------------7--------------2---------------2----------|
|--3--------------5--------------0---------------0----------|


In the next part, guitar 1 plays something, too unclear to tab, but second guitar plays this:
|----------------------------------------------|--------------------------------------|
|----------------------------------------------|--------------------------------------|
|----------------------------------------------|--------------------------------------|
|----------------------------------------------|--------------------------------------|
|-5555555555-4444444444-2222222222222222222222-|-22222222-777777777-55555555-44444444-|
|-3333333333-2222222222-0000000000000000000000-|-00000000-555555555-33333333-22222222-|

Guitar 1:
|------------------------|----------------|------------------------|
|------------------------|----------------|------------------------|
|-33--55-77-33--55-77-33-|-55-77-22-------|-33--55-77-33--55-77-33-|
|------------------------|----------55-33-|------------------------|
|------------------------|----------------|------------------------|
|------------------------|----------------|------------------------|

|-------------------------------|
|-------------------------------|
|-55-77-22----------------------|
|----------55-33-11-55-33-11----|
|----------------------------33-| 3 times
|-------------------------------|

Guitar 2:
|----------------------------------------------------|
|----------------------------------------------------|
|----------------------------------------------------|
|----------------------------------------------------|
|-2-----5-----4-----4-----2-----5-----4-----44444444-|
|-0-----3-----2-----2-----0-----3-----2-----22222222-|

|----------------------------------------------|--------------------------------------|
|----------------------------------------------|--------------------------------------|
|----------------------------------------------|--------------------------------------|
|----------------------------------------------|--------------------------------------|
|-5555555555-4444444444-2222222222222222222222-|-22222222-777777777-55555555-44444444-|
|-3333333333-2222222222-0000000000000000000000-|-00000000-555555555-33333333-22222222-|

Guitar 1:
|-----------------------------------------------------------|
|-11--1313-1515-1111--1313-1515-1010--1212-1414-99-77-55-77-|
|-----------------------------------------------------------|
|-----------------------------------------------------------|
|-----------------------------------------------------------|
|-----------------------------------------------------------|
Guitar 2:                                                    }2 times
|-----------------------------------------------------------|
|-----------------------------------------------------------|
|-----------------------------------------------------------|
|-----------------------------------------------------------|
|--5--------------7--------------2---------------2----------|
|--3--------------5--------------0---------------0----------|

Again that "something", second guitar:
|----------------------------------------------|--------------------------------------|
|----------------------------------------------|--------------------------------------|
|----------------------------------------------|--------------------------------------|
|----------------------------------------------|--------------------------------------|
|-5555555555-4444444444-2222222222222222222222-|-22222222-777777777-55555555-44444444-|
|-3333333333-2222222222-0000000000000000000000-|-00000000-555555555-33333333-22222222-|


Sorry, I don't have a solo...


After the solo, second guitar:
|----------------------------------------------|--------------------------------------|
|----------------------------------------------|--------------------------------------|
|----------------------------------------------|--------------------------------------|
|----------------------------------------------|--------------------------------------|
|-5555555555-4444444444-2222222222222222222222-|-22222222-777777777-55555555-44444444-|
|-3333333333-2222222222-0000000000000000000000-|-00000000-555555555-33333333-22222222-|

Guitar 1:
|------------------------|----------------|------------------------|
|------------------------|----------------|------------------------|
|-33--55-77-33--55-77-33-|-55-77-22-------|-33--55-77-33--55-77-33-|
|------------------------|----------55-33-|------------------------|
|------------------------|----------------|------------------------|
|------------------------|----------------|------------------------|

|-------------------------------|
|-------------------------------|
|-55-77-22----------------------|
|----------55-33-11-55-33-11----|
|----------------------------33-| 3 times 
|-------------------------------|

Guitar 2:
|----------------------------------------------|       |---------------------|
|----------------------------------------------|       |---------------------|
|----------------------------------------------|       |---------------------|
|----------------------------------------------|       |---------------------|
|-5555555555-4444444444-2222222222222222222222-|       |-2-----7-----5-----4-|
|-3333333333-2222222222-0000000000000000000000-|2 times|-0-----5-----3-----2-|


There it is! Listen the song for timing! 
Suggest correction
comments
print report bad tab
guest
You may want to rate the tab now too:
select rating
Wanna post a correction for this tab? Suggest correction