Oops, an error
Loading. Please wait.

Skyforger Tab

version 1
version 1

Whole song

Interactive

928 views 3 this week
no commentswrite comment
1 2 3 4 5
please rate
add to favorites
launch autoscroll
font size
0
reset
how to read this tab
guitar tuner
Tab Pro tools
  • play this tab
  • loop segment
  • change instrument
  • show fretboard
  • metronome
×
Best way to learn
"Skyforger"
Autoscroll
slow
fast
+/-
esc
set tempo
stop
Contributor
Skyforger-Amorphis
Tabbed by: Nicholas Jacquet
Riff Index For the Whole Song
Intro Riff x1
Riff 1 x1
Riff 2 x2
Chorus Riff x2
Riff 2 x2
Chorus Riff x4
Riff 2 x4
Pre-Interlude Riff x1
Flute Interlude x1
Keyboard solo x2
Riff 2 x2
Chorus Riff x4
Pre-Interlude Riff x3

Acoustic Intro
E|--------------------------------------------------------------------------|
B|--------------------------------------------15-13-------------13----------|
G|14-14-15-14-15p14-12----12-12h14~--12-14-15-------14-12-12-12-------------|
D|---------------------15------------------------------------------14-12-12~|
A|--------------------------------------------------------------------------|
D|--------------------------------------------------------------------------|

E|--------------------------------------------------------------|
B|--------------------------------------------------------------|
G|14-14-15-14-15p14-12----12-12h14~--12-14-14-------------------|
D|---------------------15---------------------15-15-14-15p14-12~|
A|--------------------------------------------------------------|
D|--------------------------------------------------------------|

E|----------------------------------------------------------------------|
B|----------------------------------------15-13-------------13----------|
G|14-14-15-14-15p14-12----12-12h14~--12-14-----14-12-12-12~-------------|
D|---------------------15--------------------------------------14-12-12~|
A|----------------------------------------------------------------------|
D|----------------------------------------------------------------------|

E|--------------------------------------------------------------------------|
B|--------------------------------------------------------------------------|
G|-----------------------------------------14-14-15-14-15p14-12----12-12h14~|
D|----12--------12----------12--------12------------------------15----------|
A|--12--12----12--12------12--12----12--12----------------------------------|
D|12--------12------12--12--------12----------------------------------------|

E|-------------------------------------------------------------------|
B|-----15-13-----------13--------------------------------------------|
G|12-15-----14-12-12-12-------------14-14-15-14-15p14-12----12-12h14~|
D|------------------------14-12-12~----------------------15----------|
A|-------------------------------------------------------------------|
D|-------------------------------------------------------------------|

E|------------------------------|
B|---15-13----------13----------|
G|12-------14-12-12~------------|
D|---------------------14-12-12~|
A|------------------------------|
D|------------------------------|
-Distorted Guitar-
Riff 1:
E|-------------------------------------|
B|-------------------------------------|
G|-5~---5~---5~---5~-------------------|
D|-5~---6~---3~---5~-------------------|
A|-3~---3~---3~---3~--1~---3~---1~---0~|
D|--------------------1~---3~---1~---0~|
Riff 2:
E|--------------------------------------------------------------------------|
B|--------------------------------------------------------------------------|
G|-55(5)5~---5555-5555-5555-------------------------------------------------|
D|-55(5)5~---6666-3333-5555-------------------------------------------------|
A|-33(3)3~---3333-3333-3333-1111-3333-1111-0000-----------------------------|
D|--------------------------1111-3333-1111-0000-----------------------------|
Chorus Riff:
E|-------------------------------------|
B|-------------------------------------|
G|-------------------------------------|
D|-------------------------------------|
A|------8~-------7~-3333-5555-2222-0000|
D|00000-8~-00000-7~-3333-5555-2222-0000|
Pre-Interlude Riff
E|-----------------------|
B|-----------------------|
G|-----------------------|
D|-----------------------|
A|3333-5555-2222-0000--0~|
D|3333-5555-2222-0000--0~|
Flute Interlude  
E|--------------------------------------------------------------10-------|
B|------------13--------------------------------------------------15-----|
G|14~---14-15----15-14~-12-14p12-14------------------12-14-15-14----14~--|
D|---------------------------------15-14-12~-14-14-15------------------X\|
A|---------------------------------------------------------------------X\|
D|---------------------------------------------------------------------X\|

Keyboard Solo (Play through this whole section 2x):
E|17p12--17p12--17p12-17p12--17p13--17p12|
B|-----13-----13-----------13-----13-----|
B|---------------------------------------|
G|---------------------------------------|
D|---------------------------------------|
A|---------------------------------------|
D|---------------------------------------|

E|17p12--17p12--17p12-17p12--17p13--17p12|
B|-----13-----13-----------13-----13-----|
B|---------------------------------------|
G|---------------------------------------|
D|---------------------------------------|
A|---------------------------------------|
D|---------------------------------------|

E|15p10--15p10--15p10-15p10--15p10--15p10|
B|-----12-----12-----------12-----12-----|
G|---------------------------------------|
D|---------------------------------------|
A|---------------------------------------|
D|---------------------------------------|

E|15p10--15p10--15p10-15p10--15p10--15p10|
B|-----12-----12-----------12-----12-----|
G|---------------------------------------|
D|---------------------------------------|
A|---------------------------------------|
D|---------------------------------------|

E|---------------------------------------------------------------|
B|-----15------15------15------15------15------15------15------15|
G|12h14---12h14---12h14---12h14---12h14---12h14---12h14---12h14--|
D|---------------------------------------------------------------|
A|---------------------------------------------------------------|
D|---------------------------------------------------------------|

E|---------------------------------------|
B|17p13----------------------------------|
G|-----14-17p14---14h17p14-----Playthis4x|
D|--------------17---------17------------|
A|---------------------------------------|
D|---------------------------------------|
comments
We did not receive enough feedback on this tab! Please rate:
print report bad tab
1 2 3 4 5
I want to post or [tab]
guest
You may want to rate the tab now too:
select rating
Please do not post tabs as comments. Select "correction" instead!