Oops, an error
Loading. Please wait.

Summers End Tab

version 1
version 1

Whole song

Interactive

1,110 views 1 this week
no commentswrite comment
1 2 3 4 5
2 more votes to show rating
add to favorites
launch autoscroll
font size
0
reset
how to read this tab
guitar tuner
Autoscroll
slow
fast
+/-
esc
set tempo
stop
Help us to improve Ultimate-Guitar.com Take our survey!
×
Author
Tabbed by: Colin Attlesey [AttleseyC@Cogeco.ca]

Intro
d|----------------------|
A|-------------------6~-|
F|-5h7-7-7--5h7-5h7-----| 12 Times
C|----------------------|
G|----------------------|
D|----------------------|
12th Time Slide on G From 24 to 0


Body
  Tomi
d|-----------------------|-----------------------|-----------------------|-----------------------|
A|-----------------------|-----------------------|-----------------------|-----------------------|
F|5--5--5--5--5--5--5--5-|5--5--5--5--5--5--5--5-|5--5--5--5--5--5--5--5-|5--5--5--5--5--5--5--5-|
C|5--5--5--5--5--5--5--5-|5--5--5--5--5--5--5--5-|5--5--5--5--5--5--5--5-|5--5--5--5--5--5--5--5-|
G|3--3--3--3--3--3--3--3-|3--3--3--3--3--3--3--3-|3--3--3--3--3--3--3--3-|3--3--3--3--3--3--3--3-|
D|-----------------------|-----------------------|-----------------------|-----------------------|
 | Esa                                                                                           |
d|-----------------------|-----------------------|-----------------------|-----------------------|
A|-----------------------|-----------------------|-----------------------|-----------------------|
F|10-10-10-10-8--8--7--7-|5--5--5--5--5--5--5--5-|10-10-10-10-8--8--7--7-|5--5--5--5--5--5--5--5-|
C|10-10-10-10-8--8--7--7-|5--5--5--5--5--5--5--5-|10-10-10-10-8--8--7--7-|5--5--5--5--5--5--5--5-|
G|8--8--8--8--6--6--5--5-|3--3--3--3--3--3--3--3-|8--8--8--8--6--6--5--5-|3--3--3--3--3--3--3--3-|
D|-----------------------|-----------------------|-----------------------|-----------------------|


  Tomi
d|-----------------------|-----------------------|-----------------------|-----------------------|
A|-----------------------|-----------------------|-----------------------|-----------------------|
F|-----------------------|-----------------------|-----------------------|-----------------------|
C|6--6--6--6--6--6--6--6-|6--6--6--6--6--6--6--6-|6--6--6--6--6--6--6--6-|6--6--6--6--6--6--6--6-|
G|6--6--6--6--6--6--6--6-|6--6--6--6--6--6--6--6-|6--6--6--6--6--6--6--6-|6--6--6--6--6--6--6--6-|
D|4--4--4--4--4--4--4--4-|4--4--4--4--4--4--4--4-|4--4--4--4--4--4--4--4-|4--4--4--4--4--4--4--4-|
 | Esa                                                                                           |
d|-----------------------|-----------------------|-----------------------|-----------------------|
A|-----------------------|-----------------------|-----------------------|-----------------------|
F|10-10-10-10-8--8--7--7-|5--5--5--5--5--5--5--5-|10-10-10-10-8--8--7--7-|5--5--5--5--5--5--5--5-|
C|10-10-10-10-8--8--7--7-|5--5--5--5--5--5--5--5-|10-10-10-10-8--8--7--7-|5--5--5--5--5--5--5--5-|
G|8--8--8--8--6--6--5--5-|3--3--3--3--3--3--3--3-|8--8--8--8--6--6--5--5-|3--3--3--3--3--3--3--3-|
D|-----------------------|-----------------------|-----------------------|-----------------------|


  Tomi
d|-----------------------|-----------------------|-----------------------|-----------------------|
A|-----------------------|-----------------------|-----------------------|-----------------------|
F|-----------------------|-----------------------|-----------------------|3--3--3--3--3--3--3--3-|
C|3--3--3--3--3--3--3--3-|3--3--3--3--3--3--3--3-|3--3--3--3--3--3--3--3-|3--3--3--3--3--3--3--3-|
G|3--3--3--3--3--3--3--3-|3--3--3--3--3--3--3--3-|3--3--3--3--3--3--3--3-|1--1--1--1--1--1--1--1-|
D|1--1--1--1--1--1--1--1-|1--1--1--1--1--1--1--1-|1--1--1--1--1--1--1--1-|-----------------------|
 | Esa                                                                                           |
d|-----------------------|-----------------------|-----------------------|-----------------------|
A|-----------------------|-----------------------|-----------------------|-----------------------|
F|10-10-10-10-8--8--7--7-|5--5--5--5--5--5--5--5-|10-10-10-10-8--8--7--7-|5--5--5--5--5--5--5--5-|
C|10-10-10-10-8--8--7--7-|5--5--5--5--5--5--5--5-|10-10-10-10-8--8--7--7-|5--5--5--5--5--5--5--5-|
G|8--8--8--8--6--6--5--5-|3--3--3--3--3--3--3--3-|8--8--8--8--6--6--5--5-|3--3--3--3--3--3--3--3-|
D|-----------------------|-----------------------|-----------------------|-----------------------|


  Tomi & Esa X 2
d|-----------------------|-----------------------|-----------------------|-----------------------|
A|-----------------------|-----------------------|-----------------------|-----------------------|
F|14-----14----14--14----|12-----12----12--12----|11-----11----11--11----|-9------9-----9---9----|
C|14-----14----14--14----|12-----12----12--12----|11-----11----11--11----|-9------9-----9---9----|
G|12-----12----12--12----|10-----10----10--10----|-9------9-----9---9----|-7------7-----7---7----|
D|-----------------------|-----------------------|-----------------------|-----------------------|


  Tomi & Esa
d|-----------------------|-----------------------|-----------------------|
A|-----------------------|-----------------------|-----------------------|
F|----5----5----5----5---|-----------------------|-----------------------|
C|----5----5----5----5---|5----5----5----5----7--|7--7-5-7-5-7--7--7--7--|
G|0-2-3----3----3----3---|5----5----5----5----7--|7--7-5-7-5-7--7--7--7--|
D|-----------------------|3----3----3----3----5--|5--5-3-5-3-5--5--5--5--|
Suggest correction
Give kudos to tab author, rate the tab!
1 2 3 4 5
comments
print report bad tab
guest
You may want to rate the tab now too:
select rating
Wanna post a correction for this tab? Suggest correction