Oops, an error
Loading. Please wait.

The Gathering Tab

version 1
version 1

Whole song

Interactive

642 views 6 this week
no commentswrite comment
1 2 3 4 5
please rate
add to favorites
launch autoscroll
font size
0
reset
how to read this tab
guitar tuner
Tab Pro tools
  • play this tab
  • loop segment
  • change instrument
  • show fretboard
  • metronome
×
Best way to learn
"The Gathering"
Autoscroll
slow
fast
+/-
esc
set tempo
stop
                          AMORPHIS - THE GATHERING
                      From the Album - KARELIAN ISTHMUS
                       Copyright 1993 RELAPSE RECORDS
                          Version 1.0 - JUNE 2000

Transcribed by: Heikki B. Huurinainen

For Questions, Comments, Newest Version, or Corrections contact
       Heikki B. Huurinainen at: moon_over_thee@hotmail.com

Check Out DEATH WARP, With More Transcriptions On It:
              http://tiger.towson.edu/~dalvis1

Check Out 's Web Page With More Transcriptions on it:
              /index.html

.  - palm mute                     /  - slide up to
\  - slide down to                 ~  - vibrato
h  - hammer on                     b  - bend
p  - pull off                           Suffixes for bend
ph - pinch harmonic                      f - full bend    h - half bend
*  - see comment                         r - release      t - tap bend
X  - percussion mute                     ~ - vibrato bend
@  - slight palm mute             ()  - ghost note, sustained note
"  - tremolo pick until next note

Tune to C (C,F,A#,D#,G,C)

Riff A.1
|---------------------------|
|---------------------------|
|---------------------------|Gtr I
|-----9---8--------7---7----|
|--7----7---7-7-8----8---8--|
|---------------------------|
|                           |
|---------------------------|
|---------------------------|
|---------------------------|Gtr II
|--2--------2-2-3-----------|
|--2--------2-2-3-----------|
|--0--------0-0-1-----------|

Repeat Riff A.1 (3 time)

Riff B
|---------------------------|
|---------------------------|
|-----9---8--------7---7----|Gtr I
|--7----7---7-7-8----8---8--|
|---------------------------|
|---------------------------|
|                           |
|---------------------------|
|---------------------------|
|--2--------2-2-3-----------|Gtr II
|--2--------2-2-3-----------|
|--0--------0-0-1-----------|
|---------------------------|

Repeat Riff B (3 times)

Riff A.2
|---------------------------|
|---------------------------|
|---------------------------|Gtr I
|-----9---8--------7---7----|
|--7----7---7-7-8----8---8--|
|---------------------------|
|                           |
|---------------------------|
|---------------------------|
|---------------------------|Gtr II
|--2--------2-2-3------3-3--|
|--2--------2-2-3------3-3--|
|--0--------0-0-1------1-1--|
                        . .
Repeat Riff A.2 (3 times)

Riff C.1
|-------------------------------------------------|
|-------------------------------------------------|
|-----8--7--5-----------------6--5--3-------------|Gtr I
|--5-----------8--7--5--4--3-----------6--5--3--5-|
|-------------------------------------------------|
|-------------------------------------------------|
|                                                 |
|-------------------------------------------------|
|-------------------------------------------------|
|-------------------------------------------------|Gtr II
|--5-----------8-----------4-----------3----------|
|--5-----------8-----------4-----------3----------|
|--3-----------6-----------2-----------1----------|

Repeat Riff C.1 (3 times)

Riff C.2  (Can't make this out..)
|-------------------------------
|-------------------------------
|-------------------------------
|-------------------------------
|-------------------------------
|-------------------------------
|
|-------------------------------
|-------------------------------
|-------------------------------
|--8-------6-------4-------3----
|--8-------6-------4-------3----
|--6-------4-------2-------1----

Riff D    (I'm lousy with strummings so ;P)
|------------------------------------------|
|------------------------------------------|
|------------------------------------------|Gtrs I
|--2---2-2-2--2-2-5--2-8--8-8-8--8-8--5--4-|  & II
|--2---2-2-2--2-2-5--2-8--8-8-8--8-8--5--4-|
|--0---0-0-0--0-0-3--0-6--6-6-6--6-6--3--2-|

Repeat Riff D (7 times)

Riff E.1
|-------------------------------------|
|-------------------------------------|
|-------------------------------------|Gtr I
|--------7"--6"--4"-------------------|
|--4"----------------7"--3"-----------|
|------------------------------5"-----|
|                                     |
|-------------------------------------|
|-------------------------------------|
|-------------------------------------|Gtr II
|--------7"--6"--4"-------------------|
|--4"----------------7"--3"-----------|
|------------------------------5"-----|

Repeat Riff E.1 (3 times)

Riff F.1
|--------------------------------|
|--------------------------------|
|--------9-8h9p8-6---------------|Gtr I
|--6---------------9--5----------|
|--------------------------7-----|
|--------------------------------|
|                                |
|--------------------------------|
|--------------------------------|
|--------------------------------|Gtr II
|--------7-6h7p6-4---------------|
|--4---------------7--3----------|
|--------------------------5-----|

Riff F.2
|-------------------------------------|
|-------------------------------------|
|--------9-8h9p8-6-6h8p6\4------------|Gtr I
|--6-----------------------5----------|
|-------------------------------7-----|
|-------------------------------------|
|                                     |
|-------------------------------------|
|-------------------------------------|
|-------------------------------------|Gtr II
|--------7-6h7p6-4--------------------|
|--4---------------------7-3----------|
|-------------------------------5-----|

Riff F.3
|-------------------------------|
|-------------------------------|
|-------------------------------|Gtrs I
|--------7-6h7p6-4--------------|  & II
|--4---------------7--3---------|
|--------------------------5----|

Repeat Riff F.3 (1 time)

Repeat Riff A.1 (4 times)

Riff G.1
|----------------------------------------|
|----------------------------------------|
|--2---------
comments
We did not receive enough feedback on this tab! Please rate:
print report bad tab
1 2 3 4 5
I want to post or [tab]
guest
You may want to rate the tab now too:
select rating
Please do not post tabs as comments. Select "correction" instead!