Oops, an error
Loading. Please wait.

The Lost Name Of God Bass Tab

125 views 1 this week
no commentswrite comment
1 2 3 4 5
please rate
add to favorites
launch autoscroll
font size
0
reset
guitar tuner
Tab Pro tools
  • play this tab
  • loop segment
  • change instrument
  • show fretboard
  • metronome
×
Best way to learn
"The Lost Name Of God"
Autoscroll
slow
fast
+/-
esc
set tempo
stop
Contributor
#----------------------------------PLEASE NOTE---------------------------------#
#This file is the author's own work and represents their interpretation of the #
#song. You may only use this file for private study, scholarship, or research. #
#------------------------------------------------------------------------------#

THE LOST NAME OF GOD (Bassline)
As recorded by Amorphis
(From the 1993 Album THE KARELIAN ISTHMUS)


Transcribed by Rumi (YourMessiah666)

 Words by Jan Rechberger Music by Esa Holopainen, Tomi Koivusaari & Jan Rechberger

 

Gtr I (C F Bb Eb) - 'Untitled'


 Intro
  Q=124
 4/4
  Gtr I
  W          +W           Q  Q  H      Wx7
|----------|------------|------------|--------|
|----------|------------|------------|--------|
|----------|------------|------------|--------|
|-0--------|-(0)--------|-0----------|--------|


                                  Verse
    W          +H     H     8x     W          +H     H     4x
||-----------|--------------||-||-----------|--------------||
||o----------|-------------o||-||o----------|-------------o||
||o----------|-------------o||-||o----------|-------------o||
||--0--------|-(0)----1-----||-||--3--------|-(3)----4-----||


   Interlude
    $$
    H    Q.   S S   Q.   E Q  Q   4x     H    Q.   S S   Q.   E Q  Q   4x
||----------------|---------------||-||----------------|---------------||
||o---------------|-5----5-------o||-||o---------------|--------------o||
||o-7----8----7-8-|--------5--8--o||-||o---------------|-5----5-------o||
||----------------|---------------||-||--7----8----7-8-|--------5--8---||


                                           Verse
                    To Dbl. Coda
    H     Q.   S  S   Q.   E Q   Q   4x     E E +H     E E
||------------------|----------------||-||-----------------|
||o-----------------|---------------o||-||o----------------|
||o-----------------|-7----7--------o||-||o----------------|
||--9----10----9-10-|--------7--10---||-||--1-0-(0)----1-0-|


  +H     Q  Q    E E +H     E E   +H     Q  Q   4x
|--------------|----------------|---------------||
|--------------|----------------|--------------o||
|--------------|----------------|--------------o||
|-(0)----1--4--|-4-1-(1)----4-1-|-(1)----3--1---||


   Pre-Verse
    Q=182
    W          +W           +W           +W
||-----------|------------|------------|---------||
||o----------|------------|------------|--------o||
||o----------|------------|------------|--------o||
||--0--------|-(0)--------|-(0)--------|-(0)-----||


   Verse
    $                                                            To Coda
    E E E E E E E E   E E E E E E E E   E E E E E E E E   E E E E E E E E   4x
||------------------|-----------------|-----------------|-------------------||
||o---------6-6-7-7-|-----------------|---------6-6-7-7-|-6-6-6-6----------o||
||o-7-7-7-7---------|-5-5-5-5-7-7-8-8-|-7-7-7-7---------|---------8-8-8-8--o||
||------------------|-----------------|-----------------|-------------------||


   Verse
    Q=144
                                   D.S. al Coda
    W          +H     H      W          +H     H
||-----------|-------------|----------|--------------||
||o----------|-------------|----------|-------------o||
||o----------|-------------|----------|-------------o||
||--0--------|-(0)----1----|-0--------|-(0)----1-----||


 Verse
  Q=94
  &
  W          H    H      E E E E E E E E   E E E E E E Q
|----------|-----------|-----------------|-----------------|
|----------|-----------|-----------------|-----------------|
|-2--------|-5----3----|-2-2-2-2-2-2-2-2-|-5-5-5-5-3-3-----|
|----------|-----------|-----------------|-------------8\--|


    W          H    H        E E E E +H       E E Q  E Q.
||-----------|------------||----------------|----------------|
||o----------|-----------o||----------------|----------------|
||o-2--------|-5----3----o||-2-2-2-2-(2)----|-5-5-5--3-3-----|
||-----------|------------||----------------|----------------|


                            Interlude
                             Q=124
    W          H    H     3x W          +W
||-----------|------------||----------|--------|
||o----------|-----------o||----------|--------|
||o-2--------|-5----3----o||----------|--------|
||-----------|------------||-0--------|-(0)----|


  Wx2          W          +W           W          E E E E E  E Q
|------------|----------|------------|----------|-----------------|
|------------|----------|------------|----------|--------------9--|
|------------|----------|------------|----------|-----------/7----|
|------------|-0--------|-(0)--------|----------|-0-0-0-0-0-------|


                                      D.S.S. al Dbl. Coda
                                         5/4
    W          +H     H     3x W          +H     E E E E Q
||-----------|--------------||----------|-------------------|
||o----------|-------------o||----------|-------------------|
||o----------|-------------o||----------|-------------------|
||--0--------|-(0)----1-----||-0--------|-(0)----1-1-1------|


 Outro
  &&
 4/4
  W          +W
|----------|--------*|
|----------|--------*|
|----------|--------*|
|-9--------|-(9)----*|




--------------------------------------------------------------------------------


Duration Legend
---------------
W - whole; H - half; Q - quarter; E - 8th; S - 16th; T - 32nd; X - 64th; a - acciaccatura
+ - note tied to previous; . - note dotted; .. - note double dotted
Uncapitalized letters represent notes that are staccato (1/2 duration)
Irregular groupings are notated above the duration line
Duration letters will always appear directly above the note/fret number it represents the
duration for.  Duration letters with no fret number below them represent rests.  Multi-
bar rests are notated in the form Wxn, where n is the number of bars to rest for.  Low
melody durations appear below the staff

Tablature Legend
----------------
 h   - hammer-on
 p   - pull-off
 b   - bend
 pb  - pre-bend
 r   - bend release (if no number after the r, then release immediately)
 /\  - slide into or out of (from/to "nowhere")
 s   - legato slide
 S   - shift slide
 - natural harmonic
[n]  - artificial harmonic
n(n) - tapped harmonic
 ~   - vibrato
 tr  - trill
 T   - tap
 TP  - trem. picking
 PM  - palm muting
\n/  - tremolo bar dip; n = amount to dip
 \n  - tremolo bar down
 n/  - tremolo bar up
/n\  - tremolo bar inverted dip
 =   - hold bend; also acts as connecting device for hammers/pulls
 <> - volume swell (louder/softer)
 x   - on rhythm slash represents muted slash
 o   - on rhythm slash represents single note slash

Misc Legend
-----------
 |  - bar
||  - double bar
||o - repeat start
o|| - repeat end
*|  - double bar (ending)
 :  - bar (freetime)
 $  - Segno
 &  - Coda
Tempo markers -  = BPM(8/16=s8/s16), where s8 = swing 8ths, s16 = swing 16ths

comments
We did not receive enough feedback on this tab! Please rate:
print report bad tab
1 2 3 4 5
I want to post or [tab]
guest
You may want to rate the tab now too:
select rating
Please do not post tabs as comments. Select "correction" instead!