Oops, an error
Loading. Please wait.

The Orphan Tab

1,146 views 3 this week
no commentswrite comment
1 2 3 4 5
excellent!
x 3
add to favorites
launch autoscroll
font size
0
reset
how to read this tab
guitar tuner
Autoscroll
slow
fast
+/-
esc
set tempo
stop
Help us to improve Ultimate-Guitar.com Take our survey!
×
Amorphis "The orphan"
_______________________

(tabbed by Oli & Giampiero - june2011)

Intro and verse part:
____________________

Guitar
 Gm                D#               F                D#

|-3----3----3-3-3--3----3----3-3-3--5----5----5-5-5--3----3----3-3-3----|
|-3----3----3-3-3--4----4----4-4-4--6----6----6-6-6--4----4----4-4-4----|
|-3----3----3-3-3--3----3----3-3-3--5----5----5-5-5--3----3----3-3-3----|
|-5----5----5-5-5--5----5----5-5-5--7----7----7-7-7--5----5----5-5-5----|
|-5----5----5-5-5--6----6----6-6-6--8----8----8-8-8--6----6----6-6-6----|
|-3----3----3-3-3-------------------------------------------------------|

Intro Solo (sounds close but's not 100% correct)
|-------------------------------5--6-7-5~~--------------------------|
|--------------8p6-8~~---------------------6------------------------|
|-7p5-7~~-------------------------------------7~~-----7p3-/2~~~~----|
|-------------------------------------------------------------------|
|-------------------------------------------------------------------|
|-------------------------------------------------------------------|

 |----------------------------------10p8--13/15~~-|
 |-------------------------10~~-------------------|
 |-----12p10h12~~p10------------------------------|
 |--------------------12--------------------------|
 |------------------------------------------------|
 |------------------------------------------------|

 |-----------20p17h20~~--17h20p17~~---14h17-------------------------|
 |------------------------------------------15~~-----13p11p10~~-----|
 |------------------------------------------------------------------|
 |-----8--------------------------8--10--8--------------------------|
 |8h10---10~~-------------------------------10~~--------------------|
 |--(gtr2)----------------------------------------------------------|

 |-----------------------------------------------|
 |---8p6--------6(b)p3---------------------------|
 |--------7~~----------3~~----------3------------|
 |----------------------------3h5-5---5-3-3h5~~--|
 |-----------------------------------------------|
 |-----------------------------------------------|

 |-------------------10--11--13--10~~------------------------|
 |-8~~~~------------------------------------13p11p10~~-------|
 |-----------------------------------------------------------|
 |-----------------------------------------------------------|
 |-----------------------------------------------------------|
 |-----------------------------------------------------------|

 |--------------------------------|
 |-----6(b)~~---------------------|
 |-------------5--3---------------|
 |-------------------5--3--5~~----|
 |--------------------------------|
 |--------------------------------|

    Gm                   D#
The calloo's spirits are low

F                     D#
Swimming on the chill water

        Gm           D#
But the orphan's are lower

        F                D#
Walking down the village street



     Gm                D#
The sparrow's belly is chill

F                  D#
Sitting on the icy bough

       Gm             D#
But my belly is more chill

      F                 D#
As I step from glade to glade



Am           C
  The dove's heart is cold

       G                D
As it pecks the village rick

Am         C
   But I'm colder still

      G            D
As I drink the icy water

Riff one
Gtr1
  Gm          D#         F            D#
|------------------------------------------------|
|------------------------------------------------|
|-------------8----------10-----------8----------|
|-5-----------8----------10-----------8----------|
|-5-----------6-----------8-----------6----------|
|-3----------------------------------------------|

gtr2
|------------------------------------------------|
|------------------------------------------------|
|-----3-----------3-----------5-----------3------|
|---5---5-------5---5-------7---7-------5---5----|
|-5-------5---6-------6---8-------8---6-------6--|
|------------------------------------------------|

 |-----------------------------------------------|
 |-----------------------------------------------|
 |------------8----------10-----------8----------|
 |5-----------8----------10-----------8----------|
 |5-----------6-----------8-----------6----------|
 |3----------------------------------------------|
                                                 
 |-----------------------------------------------|
 |-----------------------------------------------|
 |----3b----------3-----------5-----------3------|
 |------5-------5---5-------7---7-------5---5----|
 |5-------5---6-------6---8-------8---6-------6--|
 |-----------------------------------------------|

Riff two
Gtr1
|-------------------------------------------------------------------|
|-------------------------------------------------------------------|
|-----------7------------------------------8------------------------|
|-7-7--7-7--7--------------------7-7--7-7--8------------------------|
|-5-5--5-5--5--------------------5-5--5-5--6------------------------|
|-------------------------------------------------------------------|
 . .  . .                       . .  . .
gtr2
|-------------------------------------------------------------------|
|-------------------------------------------------------------------|
|------------------------------------------8~-----3-3---------------|
|--------------3~---2--3p2----------------------------5-5-3-3-5-----|
|-5-5--4-5--5--------------3~----5-5--4-5---------------------------|
|-------------------------------------------------------------------|

Gtr1
|----------------------------------------------------------------------------|
|----------------------------------------------------------------------------|
|-----------7------------------------------6---------------------------------|
|-7-7--7-7--7--------------------7-7--7-7--8---------------------------------|
|-5-5--5-5--5--------------------5-5--5-5--6---------------------------------|
|----------------------------------------------------------------------------|
 . .  . .                       . .  . .
gtr2
|----------------------------------------------------------------------------|
|------------------------------------------15(b)~--13h15p13-10h11p10\8-8/10--|
|----------------------------------------------------------------------------|
|--------------3~---2--3p2---------------------------------------------------|
|-5-5--4-5--5--------------3~----5-5--4-5------------------------------------|
|----------------------------------------------------------------------------|


Riff three
Gtr1
       Gm          F           Gm          D                  Gm         F
|----------------------------------------------------------------------------------------|
|----------------------------------------------------------------------------------------|
|-------------------------------------------------7--------------------------------------|
|------5-----------3-----------5-----------7-7--7-7-----------5----------3---------------|
|------5-----------3-----------5-----------5-5--5-5-----------5----------3---------------|
|------3-----------1-----------3------------------------------3----------1---------------|
                                          
gtr2
|----------------------------------------------------------------------------------------|
|--------------------------------------------------------------------------6-------------|
|---------3~---5-3-2--------------3~---5-3-2~--2h3p2-0-2---------3~---5b(7)--5br(7)p3----|
|----3-5--------------3~-----3-5----------------------------3-5-----------------------5--|
|-/5----------------------/5------------------------------5------------------------------|
|----------------------------------------------------------------------------------------|

          D#    F      Gm
 |--------------------------|
 |--------------------------|
 |--------8-----10-----12---|
 |--------8-----10-----12---|
 |--------6-----8------10---|
 |--------------------------|
			    
 |--------------------------|
 |--------------------------|
 |--3h5--3h5p3-2h3p2--------|
 |5------------------3-3/5~-|
 |--------------------------|
 |--------------------------|

Gtr1
       Gm          F           Gm          D                  Gm         F
|---------------------------------------------------------------------------------------|
|---------------------------------------------------------------------------------------|
|-------------------------------------------------7-------------------------------------|
|------5-----------3-----------5-----------7-7--7-7-----------5-----------3-------------|
|------5-----------3-----------5-----------5-5--5-5-----------5-----------3-------------|
|------3-----------1-----------3------------------------------3-----------1-------------|
                                          . .  .
gtr2
|---------------------------------------------------------------------------------------|
|---------------------------------------------------------------------------------------|
|---------3~---5-3-2--------------3~---5-3-2~--2h3p2-0-2---------3~---5-3-2-------------|
|----3-5--------------3~-----3-5----------------------------3-5--------------3~---------|
|-/5----------------------/5------------------------------5-----------------------------|
|---------------------------------------------------------------------------------------|

gtr3
|---------------------------------------------------------------------------------------|
|---------3~---1------------------3~---1-------------------------3~---1-----------------|
|----2-3---------3-2---------2-3---------3-2h3p2h3p2h3p2----2-3---------3-2-------------|
|-/3------------------3~--/3------------------------------3------------------3~---------|
|---------------------------------------------------------------------------------------|
|---------------------------------------------------------------------------------------|


          D#    F      Gm
 |-----------------------------|
 |-----------------------------|
 |------8--------10-------12---|
 |------8--------10-------12---|
 |------6--------8--------10---|
 |-----------------------------|
			       
 |-----------------------------|
 |----------------6------------|
 |--------3--5(b)---5(b)p3-----|
 |---3-5-------------------5---|
 |/5---------------------------|
 |-----------------------------|
			       
 |-----------------------------|
 |----------------6------------|
 |--------3--5(b)---5(b)p3-----|
 |---3-5-------------------5---|
 |/5---------------------------|
 |-----------------------------|


Riff four
Gtr1
 A#m         G#       A#m       Fmaj           A#m    G#       F#      G#        A#m
|--------------------------------------------------------------------------------------|
|--------------------------------------------------------------------------------------|
|--------------------------------------10----------------------------------------------|
|-8----------6---------8--------1010-1010------8-------6--------4-------6---------8----|
|-8----------6---------8---------8-8--8-8------8-------6--------4-------6---------8----|
|-6----------4---------6-----------------------6-------4--------2-------4---------6----|
                                . .  .
gtr2
|---------------------------------------------------------------------------------------|
|---------------------------------------------------------------------------------------|
|---------6~---8-6-5--------------6~---8-6-5~--5h6p5-3-5---------6~---8-6-5-------------|
|----6-8--------------6~-----6-8----------------------------6-8--------------6~---------|
|-/8----------------------/8------------------------------8-----------------------------|
|---------------------------------------------------------------------------------------|

gtr3
|---------------------------------------------------------------------------------------|
|---------6~---4------------------6~---4-------------------------6~---4-----------------|
|----5-6---------6-5---------5-6---------6-5h6p5h6p5h6p5----5-6---------6-5-------------|
|-/6------------------6~--/6------------------------------6------------------6~---------|
|---------------------------------------------------------------------------------------|
|---------------------------------------------------------------------------------------|

last time ending
 |----------------------------------------|
 |----------------------------------------|
 |----------------------------------------|
 |-----4-------------3---6------8---------|
 |-----4-------4-4-4-3---6------8---------|
 |-----2-------2-2-2-1---4------6---------|
               . . .                      
				          
 |----------------------------------------|
 |----------------------------------------|
 |--------6---5h6p5-------------7---------|
 |---6-8-------------6----------8---------|
 |/8--------------------------------------|
 |----------------------------------------|

This is my best. Some few corrections may needed.
Special thanks to all those who have tabed my favorite songs through years, you helped me
and this is my tribute.
Suggest correction
Give kudos to tab author, rate the tab!
1 2 3 4 5
comments
print report bad tab
guest
You may want to rate the tab now too:
select rating
Please do not post tabs as comments. Select "correction" instead!