Oops, an error
Loading. Please wait.

The Orphan Tab

version 2
version 2

Whole song

  • Other version had wrong tuning, chords/rhythms and leads.
64 views 3 this week
no commentswrite comment
1 2 3 4 5
3 more votes to show rating
add to favorites
launch autoscroll
font size
0
reset
how to read this tab
guitar tuner
Autoscroll
slow
fast
+/-
esc
set tempo
stop
Help us to improve Ultimate-Guitar.com Take our survey!
×
Author
Difficulty
Tuning
intermediate
D G C F A D
About this tab version
Other version had wrong tuning, chords/rhythms and leads. Was this info helpful? Yes No
The Orphan by Amorphis
                                      
                                       tabbed by Justin Roche



D Standard tuning



[Intro/verse]clean

D|-0---0-0---0-0-0---0---0-0---0-0-0----0---0-0---0-0-0---3p0-0-0---0-0-0----------------------------|
A|-2---2-2---2-2-2---1---1-1---1-1-1----3---3-3---3-3-3---1---1-1---1-1-1----------------------------|
F|-2---2-2---2-2-2---2---2-2---2-2-2----4---4-4---4-4-4---2---2-2---2-2-2----------------------------|
C|-2---2-2---2-2-2---3---3-3---3-3-3----5---5-5---5-5-5---3---3-3---3-3-3----------------------------|
G|-0---0-0---0-0-0---0---0-0---0-0-0----0---0-0---0-0-0---0---0-0---0-0-0----------------------------|
D|---------------------------------------------------------------------------------------------------|

[Intro Solo]light dist
D|-----------------------------------------------------------------------------------------------------------|
A|---------5/7--------------------------8------5-------------------------------------------------------------|
F|----5----5/7-7p5-------------7br5-\2---7-5---5---------------------------------------------5-5--7br5-5-\2--|
C|-5h7-7----------7--------------------------7---7-5-5h7----5---------------------------5-5h7-7-7------------|
G|-----------------7-5---------------------------------------7-6-5-5-6-7-6---7p5-----5-7---------------------|
D|---------------------5h8p5----------------------------------------------------8-5-8------------------------|

D|------------------|
A|--5----8----------|
F|--5----9-7--------|
C|-7-7------10-7-7--|
G|------------------|
D|------------------|

[Chorus]clean
D|-2----2--2-2-------2--2-2--2-2--0--0-0--0-0--0-0--0-0-------2---2--2-2-------2--2-2--2-2--0--0------0--0-0-|
A|-3----3--3-3--x-x--3--3-3--3-3--2--2-2--2-0--0-0--0-0--x-x--3---3--3-3--x-x--3--3-3--3-3--2--2--x-x-0--0-0-|
F|-4----4--4-3--x-x--2--2-2--2-2--2--2-2--2-2--2-2--2-2--x-x--4---4--4-4--x-x--2--2-2--2-2--2--2--x-x-1--1-1-|
C|-4----4--4-4--x-x--0--0-0--0-0--2--2-2--2-2--2-2--2-2--x-x--4---4--4-4--x-x--0--0-0--0-0--2--2--x-x-2--2-2-|
G|-2----2--2-2--------------------0--0-0--0-0--0-0--0-0-------2---2--2-2--------------------0--0------2--2-2-|
D|----------------------------------------------------------------------------------------------------0--0-0-|

D|-0--0-0-|
A|-0--0-0-|
F|-1--1-1-|
C|-2--2-2-|
G|-2--2-2-|
D|-0--0-0-|

[pre bridge 1 rhythm] distortion  
D|-----------------------------------|
A|-----------------------------------|
F|-2-2--2-2--4-4--2-2--2-2--2-2--4-4-|
C|-2-2--3-3--5-5--3-3--2-2--3-3--5-5-|
G|-0-0--0-0-------0-0--0-0--0-0------|
D|-----------------------------------|

[pre bridge 1 melody] distorion
D|-------------------------|
A|---2-----1-----3-----1---|
F|--2-2---2-2---4-4---2-1--|
C|-2---2-3---3-5---5-3---3-|
G|-------------------------|
D|-------------------------|

[bridge 1 rhythm] distortion
D|---------------------------------|
A|---------------------------------|
F|---------------------------------|
C|-2-2--2-2--2------2-2--2-2--3----|
G|-2-2--2-2--2------2-2--2-2--3----|
D|-0-0--0-0--0------0-0--0-0--1----|

[bridge 1 lead] distortion
D|--------------------------------------------------------------------------------12b-12b---------------|
A|--------------------------------------------------------------------------------------12h13p12-10-12b-|
F|------------------------------/10---------------------------------------------------------------------|
C|------------5--4-5-4-------------10-10-7-7-----10-------------5--4-5-4--------------------------------|
G|---7-6-7\-----------5---7-6-7--------------8-8-------7-6-7\-----------5---7-6-7-----------------------|
D|-0--------0-----------0----------------------------0--------0-----------0-----------------------------|

D|---------------------------------------------------------------------------------------------------|
A|---------------------------------------------------------------------------------------------------|
F|------------------------------/10------------------------------------------------9b-9b-------------|
C|------------5--4-5-4-------------10-10-7-7-----10-------------5--4-5-4----------------9h10p9--7-9b-|
G|---7-6-7\-----------5---7-6-7--------------8-8-------7-6-7\-----------5---7-6-7--------------------|
D|-0--------0-----------0----------------------------0--------0-----------0--------------------------|

D|---------------------------------------------------------------------------------12-12\-|
A|----------------------------------------------------------------------------------------|
F|------------------------------/10-------------------------------------------------------|
C|------------5--4-5-4-------------10-10-7-7-----10-------------5--4-5-4------------------|
G|---7-6-7\-----------5---7-6-7--------------8-8-------7-6-7\-----------5---7-6-7---------|
D|-0--------0-----------0----------------------------0--------0-----------0---------------|


[bridge 2A rhythm] distortion
D|-------------------------3-3\---------------------------|
A|-------------------------5-5\---------------------------|
F|-------------------------4-4\---------------------------|
C|-7--7-5---7------2-2-----------7--7-5--5-3--5--7----5-5-|
G|-7--7-5---7------2-2-----------7--7-5--5-3--5--7----5-5-|
D|-5--5-3---5---5\-0-0--0--------5--5-3--3-1--3--5----3-3-|
                 (  pm  )

[bridge 2A lead] distortion
D|---------------------------------------------------------------------------------------|
A|---------------------------------------------------8-----------------------------------|
F|------5--7-5-4---------5--7-5-4--5p4-4--------5-7b(7b)7br-5------5-7--5h7p5\4h5p4------|
C|---5-7--------5----5-7--------------7-----5-7---------------7--/7----------------5-5/7-|
G|-/7-------------/7---------------------/7----------------------------------------------|
D|---------------------------------------------------------------------------------------|

D|---------------------------------------------------------------------------------------|
A|---------------------------------------------------------------------8-----------------|
F|------5--7-5-4---------5--7-5-4--5p4-4--------5--7-5-4----------5-7b(7b)7br-p5---------|
C|---5-7--------5----5-7--------------7-----5-7---------5-----5-7----------------7-------|
G|-/7-------------/7---------------------/7----------------/7----------------------------|
D|---------------------------------------------------------------------------------------|


[bridge 2B rhythm] distortion
D|------------------------------------------------------------------------------------|
A|------------------------------------------------------------------------------------|
F|------------------------------------------------------------------------------------|
C|-7--7-7--7-5--5-5--5-7--7-7--7-2--2-2--2-7--7-7--7-5--5-5--5-3--3-5--5-7--7-7---5-5-|
G|-7--7-7--7-5--5-5--5-7--7-7--7-2--2-2--2-7--7-7--7-5--5-5--5-3--3-5--5-7--7-7---5-5-|
D|-5--5-5--5-3--3-3--3-5--5-5--5-0--0-0--0-5--5-5--5-3--3-3--3-1--1-3--3-5--5-5---3-3-|


[bridge 2B lead 1] distortion
D|-----------------------------------------------------------------------------|
A|-----------------------------------------------------------------------------|
F|------5--7-5-4---------5--7-5-4--5p4-4--------5--7-5-4---------5---4br-------|
C|---5-7--------5----5-7--------------7-----5-7---------5----5-7---7-----5-5/7-|
G|-/7-------------/7---------------------/7---------------/7-------------------|
D|-----------------------------------------------------------------------------|

[bridge 2B lead 2 (harmony] distortion
D|----------------------------------------------------------------------|
A|------5--3-5-3tr5------5--3-5-3tr5-----------5--3-5-3tr5--------------|
F|---4-5-----------4--4-5------------------4-5------------4--4-4br------|
C|-/5---------------/5------------------/5-----------------/5-----5-5/7-|
G|----------------------------------------------------------------------|
D|----------------------------------------------------------------------|

[Bridge 2C rhythm (key change)] distortion
D|---------------------------------------------------------------------|
A|---------------------------------------------------------------------|
F|---------------------------------------------------------------------|
C|-10-------8------10------5------10------8------6------8------10------|
G|-10-------8------10------5------10------8------6------8------10------|
D|-8--------6------8-------3------8-------6------4------6------8-------|
 (((((((((((((((((((((((((strum))))))))))))))))))))))))))))))))))

[Bridge 2C lead (key change)] distortion
D|-------------------------------------------------------------------------------------|
A|-------------------------------------------------------------------------------------|
F|--------8--10-8-7----------8--10-8-7--8p7--7---------8--10-8-7----------8--7br-------|
C|----8-10---------8-----8-10--------------10------8-10---------8-----8-10-10---8-8/10-|
G|-/10----------------/10-----------------------/10----------------/10-----------------|
D|-------------------------------------------------------------------------------------|

[Bridge 2C lead 2 (harmony)] distortion
D|--------------------------------------------------------------------------------|
A|------8--6-8-6tr8--------8--6-8-6tr8--------------8--6-8-6tr8-------------------|
F|---7-8-----------7----7-8----------------------7-8-----------7----7b-7br--------|
C|-/8-----------------/8-----------------------/8--------------------------8-8/10-|
G|--------------------------------------------------------------------------------|
D|--------------------------------------------------------------------------------|


[outro rhythm] distortion
D|---------------------------------------------------------------------------------------------------|
A|---------------------------------------------------------------------------------------------------|
F|---------------------------------------------------------------------------------------------------|
C|-6---8---10---6---8---10---6---8---10----6----6-6-6--5--------------10-----------------------------|
G|-6---8---10---6---8---10---6---8---10----6----6-6-6--5------5-------10-----------------------------|
D|-4---6---8----4---6---8----4---6---8-----4----4-4-4--3------6-------8------------------------------|


[outro lead 1] distortion
D|----------------------------------------------------------------------------------------------|
A|----------------------------------------------------------------------------------------------|
F|--------8--7br--------------8--7br--------------8--7br-------------------8-------7br----------|
C|----8-10-10---8-8/10----8-10-10---8-8/10----8-10-10---8-8/10----8---10------10--------8----10-|
G|-/10-----------------/10-----------------/10-----------------/10------------------------------|
D|----------------------------------------------------------------------------------------------|


[outro lead 2 (harmony)]
D|----------------------------------------------------------------------------------------------|
A|---------------------------------------------------------------8---6tr8-----------------------|
F|-7b-7br---------------7b-7br--------------7b-7br------------------------7tr8----7-------9-----|
C|-------8-8/10---------------8-8/10--------------8-8/10----------------------------------------|
G|----------------------------------------------------------------------------------------------|
D|----------------------------------------------------------------------------------------------|



************************************

| p   Pull-off
| /   Slide up
| br  Bend release
| \   Slide down
| h   Hammer-on
| x   Dead note
| b   Bend
| tr  Trill

************************************
Suggest correction
Give kudos to tab author, rate the tab!
1 2 3 4 5
comments
print report bad tab
guest
You may want to rate the tab now too:
select rating
Wanna post a correction for this tab? Suggest correction