Oops, an error
Loading. Please wait.

Two Moons Bass Tab

version 1
version 1

Whole song

Interactive

463 views 3 this week
no commentswrite comment
1 2 3 4 5
please rate
add to favorites
launch autoscroll
font size
0
reset
guitar tuner
Autoscroll
slow
fast
+/-
esc
set tempo
stop
Help us to improve Ultimate-Guitar.com Take our survey!
×
Contributor
tonedeafidiot 39,150
#----------------------------------PLEASE NOTE---------------------------------#
#This file is the author's own work and represents their interpretation of the #
#song. You may only use this file for private study, scholarship, or research. #
#------------------------------------------------------------------------------#

TWO MOONS (Bassline)
As recorded by Amorphis
(From the 2006 Album ECLIPSE)

Transcribed by hauntedinflames


 Words by Paavo Haavikko Music by Holopainene, Kallio

 

Gtr I (D G C F) - 'Untitled'


 Intro
  Q.=120
 6/4
  Gtr I
  Wx3              W        E E E E
|----------------|------------------|
|----------------|------------------|
|----------------|------------------|
|----------------|------------5-4-1-|


  W.              +W.              W.              +W         +E  E E E
|---------------|----------------|---------------|-------------------------|
|---------------|----------------|---------------|-------------------------|
|---------------|----------------|---------------|-------------------------|
|-0-------------|-(0)------------|-0-------------|-(0)--------(0)-5-4-1----|


  E E E E E E E E E E E E   E E E E E E E Q  E Q
|-------------------------|-----------------------|
|-------------------------|-----------------------|
|-------------------------|-----------------------|
|-0-0-0-0-0-0-0-5-4-0-4-1-|-0-0-0-0-0-0-1-1--1-1--|


  E E E E E E E E E E E E   E E E E E E E Q  E Q
|-------------------------|-------------------------|
|-------------------------|-------------------------|
|-------------------------|-------------------------|
|-0-0-0-0-0-0-0-5-4-0-4-1-|-0-0-0-0-0-0-1-1--1-1----|


  $
  E E E E E E E E E E E E   E E E E E E E Q  E Q
|-------------------------|-----------------------|
|-------------------------|-----------------------|
|-------------------------|-----------------------|
|-0-0-0-0-0-0-0-5-4-0-4-1-|-0-0-0-0-0-0-1-1--1-1--|


  E E E E E E E E E E E E   E E E E E E E Q  E Q
|-------------------------|-------------------------||
|-------------------------|-------------------------||
|-------------------------|-------------------------||
|-0-0-0-0-0-0-0-5-4-0-4-1-|-0-0-0-0-0-0-1-1--1-1----||


   Verse
    E E E E E E E E E E E E   E E E E E E E Q  E Q
||--------------------------|-----------------------|
||o-------------------------|-----------------------|
||o-------------------------|-----------------------|
||--0-0-0-0-0-0-0-5-4-0-4-1-|-0-0-0-0-0-0-1-1--1-1--|


  E E E E E E E E E E E E   E E E E E E E q  E Q
|-------------------------|--------------------------||
|-------------------------|-------------------------o||
|-------------------------|-------------------------o||
|-0-0-0-0-0-0-0-5-4-0-4-1-|-0-0-0-0-0-0-1-1--1-1-----||


 horus
  W        +Q   Q    W.              W.              W.
|------------------|---------------|---------------|-------|
|------------------|---------------|---------------|-------|
|------------------|---------------|-3-------------|-0-----|
|-0--------(0)--2--|-3-------------|---------------|-------|


  H.      Q  Q  Q    W.              W.              +H.      H.
|------------------|---------------|---------------|----------------|
|------------------|---------------|---------------|----------------|
|---------7--------|---------------|-3-------------|-(3)------5-----|
|-0----------0--2--|-3-------------|---------------|----------------|


  H.      H    Q    H.      H.        H.      H    Q
|-----------------|-----------------|-----------------|
|-----------------|-----------------|-----------------|
|-----------------|---------2-------|-----------------|
|-0-------0----2--|-3---------------|-0-------0----2--|


                                       To Coda
  H.      H.        H.      H    Q    H.      H.
|-----------------|-----------------|---------------|
|-----------------|-----------------|---------------|
|---------5-------|-----------------|---------2-----|
|-3---------------|-0-------0----2--|-3-------------|


                                                  D.S. al Coda
  E W        Q.     H.      E Q  E Q    E W        Q.      W.
|-----------------|-------------------|-----------------|---------||
|-----------------|-------------------|-----------------|---------||
|-----------------|-------------------|-----------------|---------||
|-0---------------|---------1-1--1-1--|-0---------------|-12\-----||


 Breakdown
  &
  W.              +W.              +W.              +H.      S S E S S E S S E
|---------------|----------------|----------------|----------------------------|
|---------------|----------------|----------------|----------------------------|
|---------------|----------------|----------------|----------------------------|
|-0-------------|-(0)------------|-(0)------------|-(0)------1-1-1-1-1-1-1-1-1-|


  W.              +W.              +W.              +H.      H.
|---------------|----------------|----------------|----------------|
|---------------|----------------|----------------|----------------|
|---------------|----------------|----------------|----------5-----|
|-0-------------|-(0)------------|-(0)------------|-(0)------------|


  W.              W.              W.              H.      Q  Q  Q
|---------------|---------------|---------------|--------------------||
|---------------|---------------|---------------|--------------------||
|-3-------------|-3-------------|-3-------------|-3-------5--5--5----||
|---------------|---------------|---------------|--------------------||


   Solo
    E E E E E E E E E E E E   E E E E E E E E E E E E
||--------------------------|-------------------------|
||o-------------------------|-------------------------|
||o-------------------------|-------------2-2-2-2-2-2-|
||--0-0-0-0-0-0-0-0-0-0-2-2-|-3-3-3-3-3-3-------------|


  E E E E E E E E E E E E   E E E E E E E E E E E E
|-------------------------|-----------------------------||
|-------------------------|----------------------------o||
|-------------------------|-------------5-5-5-5-5-5----o||
|-0-0-0-0-0-0-0-0-0-0-2-2-|-3-3-3-3-3-3-----------------||


 Outro
  E E E E E E E E E E E E   E E E E E E E E E E E E
|-------------------------|-------------------------|
|-------------------------|-------------------------|
|-------------------------|-------------2-2-2-2-2-2-|
|-0-0-0-0-0-0-0-0-0-0-2-2-|-3-3-3-3-3-3-------------|


  E E E E E E E E E E E E   E E E E E E E E E E E E
|-------------------------|----------------------------|
|-------------------------|----------------------------|
|-------------------------|-------------5-5-5-5-5-5----|
|-0-0-0-0-0-0-0-0-0-0-2-2-|-3-3-3-3-3-3----------------|


  E E E E E E E E E E E E   E E E E E E E E E E E E
|-------------------------|-------------------------|
|-------------------------|-------------------------|
|-------------------------|-------------2-2-2-2-2-2-|
|-0-0-0-0-0-0-0-0-0-0-2-2-|-3-3-3-3-3-3-------------|


  E E E E E E E E E E E E   H.      H.
|-------------------------|---------------|
|-------------------------|---------------|
|-------------------------|---------5-----|
|-0-0-0-0-0-0-0-0-0-0-2-2-|-3-------------|


  W.              +W.              +W.
|---------------|----------------|----------------|
|---------------|----------------|----------------|
|---------------|----------------|----------------|
|-0-------------|-(0)------------|-(0)------------|


  +H.      E Q  E Q    E W        Q.
|--------------------|------------------*|
|--------------------|------------------*|
|--------------------|------------------*|
|-(0)------1-1--1-1--|-0----------------*|




--------------------------------------------------------------------------------


Duration Legend
---------------
W - whole; H - half; Q - quarter; E - 8th; S - 16th; T - 32nd; X - 64th; a - acciaccatura
+ - note tied to previous; . - note dotted; .. - note double dotted
Uncapitalized letters represent notes that are staccato (1/2 duration)
Irregular groupings are notated above the duration line
Duration letters will always appear directly above the note/fret number it represents the
duration for.  Duration letters with no fret number below them represent rests.  Multi-
bar rests are notated in the form Wxn, where n is the number of bars to rest for.  Low
melody durations appear below the staff

Tablature Legend
----------------
 h   - hammer-on
 p   - pull-off
 b   - bend
 pb  - pre-bend
 r   - bend release (if no number after the r, then release immediately)
 /\  - slide into or out of (from/to "nowhere")
 s   - legato slide
 S   - shift slide
 - natural harmonic
[n]  - artificial harmonic
n(n) - tapped harmonic
 ~   - vibrato
 tr  - trill
 T   - tap
 TP  - trem. picking
 PM  - palm muting
\n/  - tremolo bar dip; n = amount to dip
 \n  - tremolo bar down
 n/  - tremolo bar up
/n\  - tremolo bar inverted dip
 =   - hold bend; also acts as connecting device for hammers/pulls
 <> - volume swell (louder/softer)
 x   - on rhythm slash represents muted slash
 o   - on rhythm slash represents single note slash

Misc Legend
-----------
 |  - bar
||  - double bar
||o - repeat start
o|| - repeat end
*|  - double bar (ending)
 :  - bar (freetime)
 $  - Segno
 &  - Coda
Tempo markers -  = BPM(8/16=s8/s16), where s8 = swing 8ths, s16 = swing 16ths


comments
We did not receive enough feedback on this tab! Please rate:
print report bad tab
1 2 3 4 5
I want to post or [tab]
guest
You may want to rate the tab now too:
select rating
Please do not post tabs as comments. Select "correction" instead!