Oops, an error
Loading. Please wait.

Weeper On The Shore Bass Tab

version 1
version 1

Whole song

Interactive

249 views 1 this week
no commentswrite comment
1 2 3 4 5
please rate
add to favorites
launch autoscroll
font size
0
reset
guitar tuner
Tab Pro tools
  • play this tab
  • loop segment
  • change instrument
  • show fretboard
  • metronome
Autoscroll
slow
fast
+/-
esc
set tempo
stop
Contributor
Tuning
D G C F A D
#----------------------------------PLEASE NOTE---------------------------------#
#This file is the author's own work and represents their interpretation of the #
#song. You may only use this file for private study, scholarship, or research. #
#------------------------------------------------------------------------------#

WEEPER ON THE SHORE (Bassline)
As recorded by Amorphis
(From the 1996 Album ELEGY)


Transcribed by The Foreverlorn

 Words and Music by Olli-Pekka Laine, Kim Rantala
Arranged by Amorphis
 

Gtr I (D G C F) - 'Untitled'


 Acoustic Intro             Theme
  Q=120
                         $
 6/8
  Gtr I
  Wx7        E. E. E E E     E. S E E. S E
|----------|-------------||----------------|
|----------|-------------||o---------------|
|----------|-3--3--2-2-2-||o---------------|
|----------|-------------||--0--0-0-3--3-3-|


  E. E. E. E.   E. S E E. S E   E. E. E E E
|-------------|---------------|--------------||
|-------------|---------------|-------------o||
|-3--3--0--0--|---------------|-3--3--2-2-2-o||
|-------------|-0--0-0-3--3-3-|--------------||


   Verse
                                                     To Coda
    E. S E E. S E   E. E. E. E.   E. S E E. S E   E. E. E E E  4x
||----------------|-------------|---------------|--------------||
||o---------------|-------------|---------------|-------------o||
||o---------------|-3--3--0--0--|---------------|-3--3--2-2-2-o||
||--0--0-0-3--3-3-|-------------|-0--0-0-3--3-3-|--------------||


   Interlude
   5/4
    E S E S E E E S E S E E   E S E S E E E S E S E E
||--------------------------|---------------------------||
||o-------------------------|--------------------------o||
||o-------------------------|-7-x-7-x-5-7-7-x-7-x-7-5--o||
||--5-x-5-x-3-5-5-x-5-x-5-3-|---------------------------||


 Interlude Lead
  E S E S E E E S E S E E   E S E S E E E S E S E E
|-------------------------|-------------------------|
|-------------------------|-------------------------|
|-------------------------|-7-x-7-x-5-7-7-x-7-x-7-5-|
|-5-x-5-x-3-5-5-x-5-x-5-3-|-------------------------|


                                      D.S. al Coda
  E S E S E E E S E S E E   E S E S E E E S E S E E
|-------------------------|-------------------------|
|-------------------------|-------------------------|
|-------------------------|-------------------------|
|-5-x-5-x-3-5-5-x-5-x-5-3-|-7-x-7-x-7-7-7-x-7-x-7-5-|


   Interlude Lead
    &
    E S E S E E E S E S E E   E S E S E E E S E S E E  4x
||--------------------------|--------------------------||
||o-------------------------|-------------------------o||
||o-------------------------|-7-x-7-x-5-7-7-x-7-x-7-5-o||
||--5-x-5-x-3-5-5-x-5-x-5-3-|--------------------------||


 Guitar Solo #1
 6/8
  E Q  E E E   H    E E   Q.   E E E   H    E E
|------------|----------|------------|----------|
|-7-7--7-5---|-7--------|------------|--------5-|
|----------7-|------5-5-|-7----7-5---|-7----7---|
|------------|----------|----------7-|----------|


    Q.   E E E   H    E E   Q.   E E E   H    E E
||-------------|----------|------------|------------||
||o-7----7-5---|-7--------|------------|--------5--o||
||o----------7-|------5-5-|-7----7-5---|-7----7----o||
||-------------|----------|----------7-|------------||


  Q.   E E E   H    E E   E S S S S E S S S S   E S S S S E E E
|------------|----------|---------------------|-----------------|
|-7----7-5---|-7--------|---------------------|-----------------|
|----------7-|------5-5-|-2-2-2-2---2-2-2-2---|-2-2-2-2---5-5-5-|
|------------|----------|---------------------|-----------------|


   Interlude #2
    E E E Q.     Q.   E E E   E E E Q.     Q.   E E E
||-------------|------------|------------|--------------||
||o------------|------------|------------|-------------o||
||o------------|------2-2-2-|-3-3-3------|------6-6-6--o||
||--0-0-0------|------------|------------|--------------||


   Interlude #2 Lead
    $$
    E E E Q.     Q.   E E E   E E E Q.     Q.   E E E   3x
||-------------|------------|------------|--------------||
||o------------|------------|------------|-------------o||
||o------------|------2-2-2-|-3-3-3------|------6-6-6--o||
||--0-0-0------|------------|------------|--------------||


                                          To Dbl. Coda
  E E E Q.     Q.   E E E   E E E E E E   E E E E E E
|------------|------------|-------------|---------------|
|------------|------------|-------------|---------------|
|------------|------2-2-2-|-3-3-3-0-0-0-|-2-2-2-6-6-6---|
|-0-0-0------|------------|-------------|---------------|


   Harmony Lead
                                                       D.S.S. al Dbl. Coda
    E S S E E S S E   E S S E E S S E   E S S E E S S E   E S S E E S S E   4x
||------------------|-----------------|-----------------|-------------------||
||o-----------------|-----------------|-----------------|------------------o||
||o-----------------|-3-3-3-3-2-2-2-2-|-3-3-3-3-0-0-0-0-|-2-2-2-2-6-6-6-6--o||
||--0-0-0-0-3-3-3-3-|-----------------|-----------------|-------------------||


   Harmony Lead #2
    &&
    E S S E E E E   E S S E E E E   E S S E E E E   E S S E E E E   4x
||----------------|---------------|---------------|-----------------||
||o---------------|---------------|---------------|----------------o||
||o---------------|-6-6-6-6-3-3-3-|---------------|-6-6-6-6-5-5-5--o||
||--3-3-3-3-6-6-6-|---------------|-3-3-3-3-6-6-6-|-----------------||


   Guitar Solo #2/Outro
    E S S E E E E   E S S E E E E   E S S E E E E   E S S E E E E   4x
||----------------|---------------|---------------|-----------------||
||o---------------|---------------|---------------|----------------o||
||o---------------|-6-6-6-6-3-3-3-|---------------|-6-6-6-6-5-5-5--o||
||--3-3-3-3-6-6-6-|---------------|-3-3-3-3-6-6-6-|-----------------||


  H.        +H.        +H.        +H.
|---------|----------|----------|--------*|
|---------|----------|----------|--------*|
|---------|----------|----------|--------*|
|-3-------|-(3)------|-(3)------|-(3)----*|




--------------------------------------------------------------------------------


Duration Legend
---------------
W - whole; H - half; Q - quarter; E - 8th; S - 16th; T - 32nd; X - 64th; a - acciaccatura
+ - note tied to previous; . - note dotted; .. - note double dotted
Uncapitalized letters represent notes that are staccato (1/2 duration)
Irregular groupings are notated above the duration line
Duration letters will always appear directly above the note/fret number it represents the
duration for.  Duration letters with no fret number below them represent rests.  Multi-
bar rests are notated in the form Wxn, where n is the number of bars to rest for.  Low
melody durations appear below the staff

Tablature Legend
----------------
 h   - hammer-on
 p   - pull-off
 b   - bend
 pb  - pre-bend
 r   - bend release (if no number after the r, then release immediately)
 /\  - slide into or out of (from/to "nowhere")
 s   - legato slide
 S   - shift slide
 - natural harmonic
[n]  - artificial harmonic
n(n) - tapped harmonic
 ~   - vibrato
 tr  - trill
 T   - tap
 TP  - trem. picking
 PM  - palm muting
\n/  - tremolo bar dip; n = amount to dip
 \n  - tremolo bar down
 n/  - tremolo bar up
/n\  - tremolo bar inverted dip
 =   - hold bend; also acts as connecting device for hammers/pulls
 <> - volume swell (louder/softer)
 x   - on rhythm slash represents muted slash
 o   - on rhythm slash represents single note slash

Misc Legend
-----------
 |  - bar
||  - double bar
||o - repeat start
o|| - repeat end
*|  - double bar (ending)
 :  - bar (freetime)
 $  - Segno
 &  - Coda
Tempo markers -  = BPM(8/16=s8/s16), where s8 = swing 8ths, s16 = swing 16ths


comments
We did not receive enough feedback on this tab! Please rate:
print report bad tab
1 2 3 4 5
I want to post or [tab]
guest
You may want to rate the tab now too:
select rating
Please do not post tabs as comments. Select "correction" instead!