Oops, an error
Loading. Please wait.

Arms Of A Woman Tab

version 1
version 1

Whole song

27,905 views 30 this week
no commentswrite comment
1 2 3 4 5
x 11
add to favorites
launch autoscroll
font size
0
reset
how to read this tab
guitar tuner
Autoscroll
slow
fast
+/-
esc
set tempo
stop
Help us to improve Ultimate-Guitar.com Take our survey!
×
Author
Difficulty
intermediate
Arms of A Woman (YouTube Version)
By Amos Lee

Tabbed by: Wade Rentz
Email: wr.itouch@gmail.com

Tuning: EADGBE (Standard)

Chords

A,E,D,F#m

[Intro] is just A,D,A,E in the same picking pattern as the rest of the song, so basically 
1st line of tab.

*Note*
You can add the hammer on to the D Chord whenever you feel like it really, He does it a 
through the song.


[Verse/Chorus]

E|----------------------0h2-----0h2----------------------------------|
B|-------2-----2-------3---3---3---3-------2-----2-------------------|
G|------2-2---2-2-----2-----2-2-----2-----2-2---2-2-------1-----1----|
D|-----2---2-2---2---0-------0-----------2---2-2---2-----2-2---2-----|
A|----0-----0---------------------------0-----0---------2---2-2------|
E|-----------------------------------------------------0-----0-------|

E|------------------------------------------2---------------------------|
B|-----------------------------------------3-3----------------2-----2---|
G|------------4-----4--------1-----1------2---2------1-------2-2---2-2--|
D|-----------4-4---4-4------2-2---2-2----0----------2-2-----2---2-2---2-|
A|----------2---2-2---2----2---2-2---2-------------2---2---0-----0------|
E|---0--1--2-----2--------0-----0-----------------0---------------------|

Rhythm For Lead Break

E|------------------------------------------------------------------------|
B|---------------------2-----2-----------------------2-----2--------------|
G|------1-----1-------2-2---2-2-------1-----1-------2-2---2-2-------1-----|
D|-----2-2---2-2-----2---2-2---2-----2-2---2-2-----2---2-2---2-----2-2----|
A|----2---2-2---2---0-----0---------2---2-2---2---0-----0---------2---2---|
E|---0-----0-----------------------0-----0-----------------------0--------|

E|------------------------------------------------------------------2---------------|
B|---------------2-----2-------------------------------------------3-3--------------|
G|------1-------2-2---2-2-------------2-----2--------1-----1------2---2------1------|
D|-----2-2-----2---2-2---2-----------4-4---4-4------2-2---2-2----0----------2-2-----|
A|----2---2---0-----0---------------4---4-4---4----2---2-2---2-------------2---2----|
E|---0-----------------------0--1--2-----2--------0-----0-----------------0---------|


[Lead Break]

E|------------------------------------------------------------------|
B|------------------------------------------------------------------|
G|----------9-11---9h11~~------9--------------------------9~~-------|
D|---7/11-------------------------9h11h9~~----7-9-7-9/11------------|
A|------------------------------------------------------------------|
E|------------------------------------------------------------------|

E|-----------------------------------------------------------------|
B|---12b-10-12b-----12b~~---10--9h10h9/7--7----------7—9b--7-------|
G|-------------------------------------------9~~-------------------|
D|-----------------------------------------------------------------|
A|-----------------------------------------------------------------|
E|-----------------------------------------------------------------|

E|----------------------------------------------------------2--|
B|---10----/-----5----/-------------------------------------2--|
G|---9h11h9/-----6h7h6/-----------6----/--------2h4h2-------2--|
D|--------------------------------7h9h7/--------x------4----4--|
A|----------------------------------------------x--------0--4--|
E|----------------------------------------------x-----------2--|

The Lead Break has some differences, but they are very sutble I just tabbed out how I 
it. Its really not that much of a difference,
but if you happen to pick it up exactly then feel free to email me the changes and I 
change it.

**************************

| /  slide up
| \  slide down
| h  hammer-on
| p  pull-off
| ~  vibrato
| +  harmonic
| x  Mute note

**************************
Suggest correction
comments
print report bad tab
guest
You may want to rate the tab now too:
select rating
Wanna post a correction for this tab? Suggest correction